Oops, an error
Loading. Please wait.

Q´ Carajo tab

25 views 1 this week
no commentswrite comment
1 2 3 4 5
3 more votes to show rating
add to favorites
×
Save as Personal and add changes to this tab that will be seen only by you. Learn more ›
×
You can save this tab as Personal to edit and correct it or add notes. All changes will be seen only by you. Learn more »
launch autoscroll
font size
0
reset
how to read this tab
guitar tuner
edit
Autoscroll
slow
fast
+/-
esc
set tempo
stop
Intro
   E Bm  A  A# G#
1-----3------------
2-----4--2---------
3--1--5--2---------
4--2--5--2--7--4----
5--2--3-----7--4----
6-----3-----6--2----

verso
   E  B  A
1---------------------
2---------------------
3-9*------------------ *ARTAS VESES
4--9-9*-7*------------
5--7--9--7------------
6-----7--5------------

INTERLUDIO
1---------------------
2---------------------
3-77777776-----------
4--77777776666--------  
5--55555554666--------
6----------555--------

LETRA

VERSO
No se que queres demostrar, aparentar te hace sentir mejor?
No entiendo tu posicion, no entiendo cual es la razon y todo
este tiempo trataste de estar, de ser alguien, sin importar si eras vos
 
INTERLUDIO 
VERSO (SE REPITE LA LETRA)
INTERLUDIO
no se, que pasa contigo, no se quien eres tu, no mas, vive como eres.

            
            
Suggest correction
Creating personal tab
Creating personal tab
You can edit any tab online and save it as your Personal.

You can edit, replace or remove any tab part or add personal notes – all changes will be seen only by you.

Personal tabs can be accessed anytime from any device, even offline.
Learn more »
Give kudos to tab author, rate the tab!
1 2 3 4 5
comments
print report bad tab
guest
Wanna post a correction for this tab? Suggest correction