Oops, an error
Loading. Please wait.

Un Soñador tab

23 views 1 this week
no commentswrite comment
1 2 3 4 5
3 more votes to show rating
add to favorites
×
Save as Personal and add changes to this tab that will be seen only by you. Learn more ›
×
You can save this tab as Personal to edit and correct it or add notes. All changes will be seen only by you. Learn more »
launch autoscroll
font size
0
reset
how to read this tab
guitar tuner
edit
Autoscroll
slow
fast
+/-
esc
set tempo
stop
Ahi les va esta rolita de los Cuens
la saque de la original del disco
ya que hay unas en vivo que las tocan
en diferente tono pero aqui esta la original
ta bien perrona la rolita y facil ..

arriva sinaloaaaa !!!!


Intro: F#, D#m, B, C# (x2)

e|--9/11---6---6----9/11---6--6----
B|-------7---7-----------7---7-----
G|---------------------------------
D|---------------------------------
A|---------------------------------
E|---------------------------------

e|--6/7---7-7-6-7-6-6-4-4-4--------
B|---------------------------------
G|---------------------------------
D|---------------------------------
A|---------------------------------
E|---------------------------------

e|--9/11---6---6----9/11---6--6----
B|-------7---7-----------7---7-----
G|---------------------------------
D|---------------------------------
A|---------------------------------
E|---------------------------------


e|--6/7---7-7-6-7-6-6-4-4-2-1-4-2--
B|---------------------------------
G|---------------------------------
D|---------------------------------
A|---------------------------------
E|---------------------------------


F#            D#m           B         C#
Te mande un poema, Lo escribio mi corazon
F#            D#m           B         C#
Que no tiene nombre, lo mando un admirador.

F#         D#m        B            C#
Soy un soñador, inspirado en tu belleza
F#          D#m       B           C#
Que se enamoro al mirar, a una estrella.


Coro:
F#           D#m      B             C#
Mi amor, mi amor no puedo desir, te amo
F#           D#m      B             C#
te amo,  mi amor no puedo desir te amo.


Intermedio: (aqui se vuelve a repetir inicio)


F#                 D#m          B           C#
No me atrevo a hablarte, ni tampoco a compañarte
F#           D#m         B           C#
Pues mi corazon, tiene miedo a un rechaze

F#         D#m        B            C#
Soy un soñador, inspirado en tu belleza
F#          D#m       B           C#
Que se enamoro al mirar, a una estrella.


Coro:
F#           D#m      B             C#
Mi amor, mi amor no puedo desir, te amo
F#           D#m      B             C#
te amo,  mi amor no puedo desir te amo.


Final: F#, D#m, B, C#

e|--9/11---6---6----9/11---6--6----
B|-------7---7-----------7---7-----
G|---------------------------------
D|---------------------------------
A|---------------------------------
E|---------------------------------


e|--6/7---7-7-6-7-6-6-4-4-2-1-4-2--
B|---------------------------------
G|---------------------------------
D|---------------------------------
A|---------------------------------
E|---------------------------------

            
            
Suggest correction
Creating personal tab
Creating personal tab
You can edit any tab online and save it as your Personal.

You can edit, replace or remove any tab part or add personal notes – all changes will be seen only by you.

Personal tabs can be accessed anytime from any device, even offline.
Learn more »
Give kudos to tab author, rate the tab!
1 2 3 4 5
comments
print report bad tab
guest
Wanna post a correction for this tab? Suggest correction