Oops, an error
Loading. Please wait.

Sin Ti chords

88 views 1 this week
no commentswrite comment
1 2 3 4 5
3 more votes to show rating
add to favorites
×
Save as Personal and add changes to this tab that will be seen only by you. Learn more ›
×
You can save this tab as Personal to edit and correct it or add notes. All changes will be seen only by you. Learn more »
launch autoscroll
font size
0
reset
transpose
0
reset
display chords
guitar tuner
edit
Autoscroll
slow
fast
+/-
esc
set tempo
stop
Strumming
There is no strumming pattern for this song yet. and get +5 IQ
INTRO

 C                         Am
|-0---0---0-------0-------|----0----------0-------|
|---------------1---1-----|-1-----1------1--1-----|
|---0---0-----0-------0---|------------2------2---|
|-----------2-----------2-|--2---2---2----------2-|
|-------------------------|-----------------------|
|-------------------------|-----------------------|

 C                         Am
|-0---0---0-------0-------|----0----------0-------|
|---------------1---1-----|-1-----1------1--1-----|
|---0---0-----0-------0---|------------2------2---|
|-----------2-----------2-|--2---2---2----------2-|
|-------------------------|-----------------------|
|-------------------------|-----------------------|


C
ya no puedo ni comer
Am
esque no te puedo olvidar
C
hay vida amia ayudame
Am
sin ti no puedo vivir mas

F           G
y sigo asi sin tu amor
F                            G
y sigo asi esque mi vida sin ti
no puedo vivir, nooo


C
Cuz baby you're so tough, so tough, so tough
                    Am
I have to get on my knees & pray
C
Oh baby it's not enough, enough,
oh baby it's not enough
                         Am
I have to get on my knees & pray

C
todo quedo en el ayer
Am
lagrimas en nuestro altar
C
tu eres mi alma gemela
                 Am
sin ti no puedo respirar

F                G
y sigo asi sin tu olor
F                            G
y sigo asi esque mi vida sin ti
no puedo vivir noooo


C                           Am
I have to get on my knees & pray
C
Cuz baby you're so tough, so tough,
cuz baby it´s not enough, enough...
                        Am
I have to get on my knees & pray

C
Oh baby I and I pray
Me pray for another chance with you me pray
Oh God let this pain go away
Am
Dime porque nuestro amor tuvo que terminar
Por que nuestro ego nos logró dominar
C
Acabando con todo lo que fué nuestro altar
Tú eres me alma gemela y no te voy olvidar
Am
Y rezo pa' que en la otra vida
nos volvamos a encontrar
Oh baby I & I pray

F                G
y sigo asi sin tu olor
F                            G
y sigo asi esque mi vida sin ti
no puedo vivir noooo

C                             Am
Come rock steady debe doo va day
C
Ya me tengo que ir
Am
Y no me que quiero alejar
C
Ay, vida mia ayudame
Am
Sin ti no quiero vivir más

F              G
Y sigo asi Sin tu olor
F                     G
Y sigo asi No lo puedo evitar
F
Ayudame
G
No te puedo olvidar
F             G
Es que sin ti...

|----------------------|
|-------------------7--|
|-0/2--2-4--4/7---7----|
|----------------------|
|----------------------|
|----------------------|

No puedo vivir más!


...:::Cultura Profetica - Sin ti:::...

            
            
Suggest correction
Creating personal tab
Creating personal tab
You can edit any tab online and save it as your Personal.

You can edit, replace or remove any tab part or add personal notes – all changes will be seen only by you.

Personal tabs can be accessed anytime from any device, even offline.
Learn more »
Give kudos to tab author, rate the tab!
1 2 3 4 5
comments
print report bad tab
guest
Wanna post a correction for this tab? Suggest correction