Oops, an error
Loading. Please wait.

Tu Cariñito tab

version 1
version 1

Whole song

140 views 3 this week
no commentswrite comment
1 2 3 4 5
3 more votes to show rating
add to favorites
×
Save as Personal and add changes to this tab that will be seen only by you. Learn more ›
×
You can save this tab as Personal to edit and correct it or add notes. All changes will be seen only by you. Learn more »
launch autoscroll
font size
0
reset
how to read this tab
guitar tuner
edit
Autoscroll
slow
fast
+/-
esc
set tempo
stop
OJO ESTA CANCION NO ES TU CARIÑITOOOOOO
PERO E TENIDO CUALKIER PROBLEMA PARA SUBIR CANCIONES
NUEVAS ASI Q LA SUBO EN OTRA Q YA ESTA... OJALA Q EL
SERVIDOR D LA PAGINA LEA ESTO Y SE AGA ALGUNOS ARREGLITOS

 LA CUMBIA- UNA NOCHE CON VOS

Intro

    __ x3 ___               __ x3 ___
   /                      /         
 e|-----------|-----------|-----------|-5-5-3---3-| Se repite algo asi
 b|---6-8-6-8-|-6-6-------|---4-6-4-6-|-------6---| como 2 veces todo esto
 g|-7---------|-----8-7-8-|-5---------|-----------|
 d|-----------|-----------|-----------|-----------|
 a|-----------|-----------|-----------|-----------|
 E|-----------|-----------|-----------|-----------|


  =Letra=

   Gm                                            F
  Con su mirada apasionada va en busca de otro amor
                                                     Gm
 entra al boliche, no paga entrada bailando es la mejor
                                                    F
 cuando ella pasa todos la invitan y nunca dice que no
                                               Gm
 toda la noche de mesa en mesa para pasarla mejor

 =Solo=

 e|-----------------------------------------------------6-------------------|
 b|-------------8----------------6-----------------8-10---10-8-10----8------|
 g|------7-8-10---10-------5-7-8---8--------7-8-10----------------10---8-10-|
 d|-8-10---------------6-8-------------8-10---------------------------------|
 a|-------------------------------------------------------------------------|
 E|-------------------------------------------------------------------------|


 e|-------10-11-13-15-13------8-10-11-13-15-|
 b|-11-13----------------9-11---------------|
 g|-----------------------------------------|
 d|-----------------------------------------|
 a|-----------------------------------------|
 E|-----------------------------------------|


 e|-------10-11-13-11-13-15-13-11-10-11-10---------------------------/15-|
 g|-11-13----------------------------------13-11-13-11-10-8-10-8-6-8-----|
 b|----------------------------------------------------------------------|
 d|----------------------------------------------------------------------|
 a|----------------------------------------------------------------------|
 E|----------------------------------------------------------------------|

       Gm         F
  Mi amor, le dicen cuando pasa
                         Gm
 yo quiero una noche con voz
                       F
 tomamos un par de cervezas bailamos
                        Gm
 un rato y hacemos el amor
     Gm         F
  Mi amor, le dicen cuando pasa
                         Gm
 yo quiero una noche con voz
                       F
 tomamos un par de cervezas bailamos
                        Gm
 un rato y hacemos el amor

 En el Corte
                    ^ v = aqui se le hace para arriba y para abajo
 e|-----------------3--|  al sol menor
 b|---------3^------3--|
 g|-7*--7*-----3^---3--|  *= lo use para una nota que se hace varias
 d|--------------------|     veces rapida con la uñeta
 a|--------------------|
 E|--------------------|  3^= tirar la cuerda hasta un semitono

 =Luego se repite la intro=

   Gm                                            F
  Con su mirada apasionada va en busca de otro amor
                                                     Gm
 entra al boliche, no paga entrada bailando es la mejor
                                                    F
 cuando ella pasa todos la invitan y nunca dice que no
                                               Gm
 toda la noche de mesa en mesa para pasarla mejor


 =SOLO=


       Gm         F
  Mi amor, le dicen cuando pasa
                         Gm
 yo quiero una noche con voz
                       F
 tomamos un par de cervezas bailamos
                        Gm
 un rato y hacemos el amor
     Gm         F
  Mi amor, le dicen cuando pasa
                         Gm
 yo quiero una noche con voz
                       F
 tomamos un par de cervezas bailamos
                        Gm
 un rato y hacemos el amor

 =SOLO=

 SALSEANDO

 BUENO AHI OTRA MAS DE YO... LES REPITO DE NUEVO Q NO ES
TU CARIÑITO ES UNA NOCHE CON VOS. ESPERO Q LOS DE LA PAGINA
LA PONGAN CON SU NOMBRE ORIGINAL... ESTA TAL VEZ SEA LA
ULTIMA Q SUBO D LA CUMBIA YA Q NO E PODIDO SUBIR NADA NUEVO
NO SE Q ONDA....... BUENO AHI SE VEN LOKITOS Y NUNKA DEJEN
LA MUSICA POR Q AL FINAL DE TODO EL ESFUERZO SIEMPRE DEJA
FRUTOS, SE LOS DIGO YO ;) NOS VEREMOS

            
            
Suggest correction
Creating personal tab
Creating personal tab
You can edit any tab online and save it as your Personal.

You can edit, replace or remove any tab part or add personal notes – all changes will be seen only by you.

Personal tabs can be accessed anytime from any device, even offline.
Learn more »
Give kudos to tab author, rate the tab!
1 2 3 4 5
comments
print report bad tab
guest
Wanna post a correction for this tab? Suggest correction