Oops, an error
Loading. Please wait.

Ya Llegó El Sabor tab

version 1
version 1

Whole song

Interactive

311 views 6 this week
no commentswrite comment
1 2 3 4 5
3 more votes to show rating
add to favorites
×
Save as Personal and add changes to this tab that will be seen only by you. Learn more ›
×
You can save this tab as Personal to edit and correct it or add notes. All changes will be seen only by you. Learn more »
launch autoscroll
font size
0
reset
how to read this tab
guitar tuner
edit
Autoscroll
slow
fast
+/-
esc
set tempo
stop
 La Cumbia- Ya llego el sabor


 =Intro Guitarra=

    ______ x2 _____
   /               \
 e|---------------3-|-------------------------------|
 b|-------5---------|-------5-----5-5/6-5-3---------|
 g|-5-4-5---5-4-5---|-5-4-5---5-4-----------5-4-2-0-|
 d|-----------------|-------------------------------|
 a|-----------------|-------------------------------|
 E|-----------------|-------------------------------|

    ______ x2 _____
   /               \
 e|---------------5-|---------5-7-8-7-5-------------|
 b|-------6---------|-------6-----------8-6-5-------|
 g|-7-6-7---7-6-7---|-7-6-7-------------------7-7/9-|
 d|-----------------|-------------------------------|
 a|-----------------|-------------------------------|
 E|-----------------|-------------------------------|


    _________ x2 __________
   /                       \
 e|----------12----------15-|----------12-------12-12/13-12-10-------------|
 b|-13-12-13----13-12-13----|-13-12-13----13-12----------------13-12-10----|
 g|-------------------------|-------------------------------------------12-|
 d|-------------------------|----------------------------------------------|
 a|-------------------------|----------------------------------------------|
 E|-------------------------|----------------------------------------------|


    _________ x2 __________
   /                       \
 e|----------13----------17-|----------13-17-19-20-19-17-15-13-12-------|
 b|-15-14-15----15-14-15----|-15-14-15----------------------------15-13-|
 g|-------------------------|-------------------------------------------|
 d|-------------------------|-------------------------------------------|
 a|-------------------------|-------------------------------------------|
 E|-------------------------|-------------------------------------------|


 =Letra=

 Am                         G
 La cumbia para toda la ciudad
                             Am
 porque nos dimos cuenta de algo
                          E
 la gente es muy alegre aqui
                             Am
 escucha cumbia por todos lados
                          E
 la gente es muy alegre aqui
                             Am
 escucha cumbia por todos lados

 Am                    G
 Fin de semana por la noche
                             Am
 nos juntamos con _ _ _ para bailar
                               E
 nos vamos siempre al mismo boliche

 que se llena de mujeres
                   Am
 se pone hasta las manos de verdad
                               E
 nos vamos siempre al mismo boliche

 que se llena de mujeres
                   Am
 se pone hasta las manos de verdad


 =Teclado=

 Am                                      G
 Hay mucha gente alegre aqui en esta ciudad
                                     Am
 que bailan este ritmo que esta escuchando
                   E                             Am
 de la mano de la cumbia, cumbia buena estas bailando
                                         G
 Hay mucha gente alegre aqui en esta ciudad
                                      Am
 que bailan este ritmo que esta escuchando
                   E                             Am
 de la mano de la cumbia, cumbia buena estas bailando


 =Coro=

 Am             G
 Ya llego este ritmo alegre
                Am
 ya llego el sabor
             E
 vamos a bailar toda la noche
                    Am
 hasta que salga el sol
 Am             G
 Ya llego este ritmo alegre
                Am
 ya llego el sabor
             E
 vamos a bailar toda la noche
                    Am
 hasta que salga el sol

 =teclado=


 Pre-coro

 e|-20-19-17-15-13-12-17-|
 b|----------------------|
 g|----------------------|
 d|----------------------|
 a|----------------------|
 E|----------------------|

 =NOTAS=

   Am   G   E
 e|-5-|-3-|-7-|
 b|-5-|-3-|-9-|
 g|-5-|-4-|-9-|
 d|-x-|-x-|-x-|
 a|-x-|-x-|-x-|
 E|-x-|-x-|-x-|

 Hola putos cabrones aki les sake otra mas de esta
 banda q esta de chidos'. kiero mandar un saludo
 a mi prima Claudia y a mi elmanita kote jiji ;)
 las estimo mxo q les vaiga bm en todo y m refiero
 en TODO. nos estaremos viendo en un futuro no muy
 lejano... Curanilahue 12/5/05

            
            
Suggest correction
Creating personal tab
Creating personal tab
You can edit any tab online and save it as your Personal.

You can edit, replace or remove any tab part or add personal notes – all changes will be seen only by you.

Personal tabs can be accessed anytime from any device, even offline.
Learn more »
Give kudos to tab author, rate the tab!
1 2 3 4 5
comments
print report bad tab
guest
Wanna post a correction for this tab? Suggest correction