Oops, an error
Loading. Please wait.

Una Vez Más tab

22 views 1 this week
no commentswrite comment
1 2 3 4 5
3 more votes to show rating
add to favorites
×
Save as Personal and add changes to this tab that will be seen only by you. Learn more ›
×
You can save this tab as Personal to edit and correct it or add notes. All changes will be seen only by you. Learn more »
launch autoscroll
font size
0
reset
how to read this tab
guitar tuner
edit
Autoscroll
slow
fast
+/-
esc
set tempo
stop
Intro:

1----------------------------------------------------------------
 7--7-9-10-9-7---7--7-9-10-9-7-5-2--2-5-7-5-------7-7-9-10-9-7-10
 --------------7----------------------------4-2-1----------------
 ----------------------------------------------------------------
 ----------------------------------------------------------------
6----------------------------------------------------------------

1------------------------------------------------------
 10-12-14-12-10-14--14-15-14-12-10-----10-10-7---------
 ----------------------------------13------------------
 ------------------------------------------------------
 ------------------------------------------------------
6------------------------------------------------------


punteos q se escuchan al final de cada frase:


 1-----------------|
  -10-9-7---7------|
  --------9--------|SE TOCA CUANDO APARECE *
  -----------------|
  -----------------|
 6-----------------|


 1-10-9-7----------|
  --------9-7------|SE TOCA CUANDO APARECE #
  -----------------|
  -----------------|
  -----------------|
 6-----------------|


D
 Una vez mas volvi a caer
         A                       E
en tu lujuria y calor, una vez mas  *
D
Sentia tu veneno recorrer
          A                       E
todo mi cuerpo poco a poco, consumiendo *
D
Estando contigo me asfixio
             A                   E
no respiro, no existo, yo ya no vivo *
D                              A
Me siento enjaulado, abro los ojos
             E             D
solo veo esclavos  #


                 A
Y te digo esto asi no va
D                A             G
esta vida ya no da para mas
             D             E
si alguien existe borrenmelo


A         E      D
Siempre fuiste mas que yo
A         E       D
nunca me dejaste ver la luz
A     E               D
te creia mas que mi propia vida
A      E           D
no merezco estar asi

 1---------------------------------------------------------
  7--7-9-10-9-7----7--7-9-10-9-7-5-2---2-5-7-5--------7----
  --------------7------------------------------4-2-1-------
  ---------------------------------------------------------
  ---------------------------------------------------------
 6---------------------------------------------------------


D
Las paredes enloquecen
             A               E
en una fiesta sobre mi cabeza  *
D
y tus zapatos rojos, hacen juego
        A                    E
con tu rostro, hirviendo en fuego  *
D                                       A
y asi tu corta vida se consume frente a mi
            E         D
junto A LA mia,  #

                 A
Y te digo esto asi no va
D                A             G
esta vida ya no da para mas
             D             E
si alguien existe borrenmelo


A         E      D
Siempre fuiste mas que yo
A         E       D
nunca me dejaste ver la luz           Estribillo
A     E               D
te creia mas que mi propia vida
A      E           D
no merezco estar asi


Solo


1--------------------------------------10-9-10-9-10-9-10-11-10-9
 10-9-10-9-10-7--77-------10-9--10-9-7--------------------------
 -------------------9-7-----------------------------------------
 ----------------------9-7--------------------------------------
 ---------------------------------------------------------------
6---------------------------------------------------------------


1----------------------------------------------
 10-9--10-9-10-7---10-7-10-7-----10-9--9-10-9-7
 ----------------------------9-6---------------  1
 ----------------------------------------------
 ----------------------------------------------
6----------------------------------------------


1-10-9-10-9-10-9-10-11-10-9----
 ----------------------------10-
 ------------------------------- 2 ////el uno y el 2 van juntos
 ------------------------------- es todo uno punteo como el de
 ------------------------------- arriva
6-------------------------------


A       E          D
 Y una vez mas volvi a caer
A       E      D
 en tu lujuria y calor
A       E            D
 ahora tengo que volver a nacer
A          E                D
 sabiendo que podria encontrarte

 otra vez y otra otra otra vez...


ESTRIBILLO


B       F#         E
 Y una vez mas volvi a caer
B       F#      E
 en tu lujuria y calor
B       F#           E
 ahora tengo que volver a nacer
B         F#                E
 sabiendo que podria encontrarte

 otra vez y otra otra otra vez...


   7   8   9   10
  -*- --- --- --- 1
  -*- --- --- --- 2
  -*- -*- --- --- 3   B
  -*- --- -*- --- 4
  -*- --- -*- --- 5
  -*- --- --- --- 6


LA Cumparsita Rock

Cobis ...
Bueno espero q se entienda hice mucho quilombo
Cualquier cosa mi mail es cobis22_intoXicado@...

            
            
Suggest correction
Creating personal tab
Creating personal tab
You can edit any tab online and save it as your Personal.

You can edit, replace or remove any tab part or add personal notes – all changes will be seen only by you.

Personal tabs can be accessed anytime from any device, even offline.
Learn more »
Give kudos to tab author, rate the tab!
1 2 3 4 5
comments
print report bad tab
guest
Wanna post a correction for this tab? Suggest correction