Oops, an error
Loading. Please wait.

El Alma Llena De Banderas chords

50 views 1 this week
no commentswrite comment
1 2 3 4 5
3 more votes to show rating
add to favorites
×
Save as Personal and add changes to this tab that will be seen only by you. Learn more ›
×
You can save this tab as Personal to edit and correct it or add notes. All changes will be seen only by you. Learn more »
launch autoscroll
font size
0
reset
transpose
0
reset
display chords
guitar tuner
edit
Autoscroll
slow
fast
+/-
esc
set tempo
stop
Strumming
There is no strumming pattern for this song yet. and get +5 IQ
Esta es una de las canciones mas hermosas que escribiò victor jara y que en las
voces del quilapayun hace que se sienta mucho mas fuerte el mensaje.

INTRODUCCION:
             E                                                      MIm7
E ||--------------------------------------|-----------------|------------------
B||------------0-------0----------0-------|-----------0-------0--------0-------
G||--------1-----1-------1----------1-----|--------0----0--------0-------0-----
D||----2-----------2----------2-------2---|----0-----------0---------0-------0-
A||-2-------------------------------------|-2----------------------------------
E||---------------------------------------|------------------------------------


F
|--------------------------------------
|------------1---------1---------1-----
|---------2----2--------2---------2----
|----3------------3---------3--------3-
|--3-----------------------------------
|--------------------------------------

                Em
E ||--------------------------------------|
B||--------------0-------0----------0-----|
G||----------0-----0-------0----------0---|
D||------2-----------2----------2-------2-|
A||---2-----------------------------------|
E||---------------------------------------|
                                           sigue el arpegio......


E      MIm7
Ahí, debajo de tierra,
 F                            Em
no estás dormido, hermano, compañero.
Em      MIm7
Tu corazón, oye brotar la primavera
F                           Em
que, como tú, soplando irá en los vientos.

 E      MIm7
Ahí enterrado cara al sol,
F                                Em
la nueva tierra cubre tu semilla,
E                               MIm7
la raíz profunda se hundirá
F                               Em
y nacerá la flor del nuevo día.

F                         Em
y nacerá la flor del nuevo día.

    Bm                      G
A tus pies heridos llegarán
Bm                      G
las manos del humilde, llegarán
     La7+- Mim
sembrando.
    Bm                      G
Tu muerte muchas vidas traerá
    Bm                      G
 que hacia donde tú ibas marcharán
    LA7+-MIm
cantando.

Intro

 Allí, donde se oculta el criminal,
tu nombre brinda al rico muchos nombres.
Él, que quemó tus alas al volar,
no apagará el fuego de los pobres.
    Bm                      G
Aquí hermano, aquí sobre la tierra,
    Bm                      G
el alma se nos llena de banderas
        LA7+-MIm
que avanzan.
    Bm                      G
Aquí hermano, aquí sobre la tierra,
      Bm                      G
 el alma se nos llena de banderas
    LA7+-MIm
   que avanzan.
              LA7+-MIm
 Contra el miedo
    LA7+-MIm
avanzan,
LA7+-Mim
 contra el miedo.
     LA7+-MIm
Venceremos
     LA7+-MIm
venceremos

            
            
Suggest correction
Creating personal tab
Creating personal tab
You can edit any tab online and save it as your Personal.

You can edit, replace or remove any tab part or add personal notes – all changes will be seen only by you.

Personal tabs can be accessed anytime from any device, even offline.
Learn more »
Give kudos to tab author, rate the tab!
1 2 3 4 5
comments
print report bad tab
guest
Wanna post a correction for this tab? Suggest correction