Oops, an error
Loading. Please wait.

En Que Nos Parecemos tab

57 views 1 this week
no commentswrite comment
1 2 3 4 5
3 more votes to show rating
add to favorites
×
Save as Personal and add changes to this tab that will be seen only by you. Learn more ›
×
You can save this tab as Personal to edit and correct it or add notes. All changes will be seen only by you. Learn more »
launch autoscroll
font size
0
reset
how to read this tab
guitar tuner
edit
Autoscroll
slow
fast
+/-
esc
set tempo
stop
Tono original RE# (bajar 1/2 tonos las cuerdas)

Intro:
  LAm        MIm          LAm       MIm
e-----------------------------------------------|
B----1-0-1-----0-1-0--------1-0-1-----0-1-0-----|
G----------2---------0------------2---------0---|
D----------------------2----------------------2-|
A--0----------------------0---------------------|
E------------0----------------------0-----------|

  DO          SOL/SI     MI7              LAm
e--0-0------------------------------------------|
B--1---3-1-0---3-3-1-0--------------------------|
G--0---------0-0-------2-1---1h2h1h2h1h2-2-2----|
D--2-----------0---------------------------2----|
A--3-----------2---------------------------0----|
E--------------------------0--------------------|


A)
                 DO
:/En qué nos parecemos
MI7           LAm
tú y yo a la nieve:/
                 REm
tú en lo blanca y galana
           MI7
yo en deshacerme.

B)                LA MI LA MI LA
En que nos pareceeeeeeeeeeemos
              LA
tú y yo a la nieve
              RE MI7               LA
tú y yo a la nieve, tú y yo a la nieve
                     LA MI LA MI LA
Tu en lo blanca y galaaaaaaaaaaaaana
             LA
yo en deshacerme
             RE MI7               LA
yo en deshacerme, yo en deshacerme

Intro

A)
:/A los árboles altos
los mueve el viento:/
y a los enamorados
el pensamiento.

B)
A los arboles aaaaaaaaaaaaaaaltos
los mueve el viento
los mueve el viento,los mueve el viento
Y a los enamoraaaaaaaaaaaaaaaaaaados
el pensamiento
el pensamiento, el pensamiento

            
            
Suggest correction
Creating personal tab
Creating personal tab
You can edit any tab online and save it as your Personal.

You can edit, replace or remove any tab part or add personal notes – all changes will be seen only by you.

Personal tabs can be accessed anytime from any device, even offline.
Learn more »
Give kudos to tab author, rate the tab!
1 2 3 4 5
comments
print report bad tab
guest
Wanna post a correction for this tab? Suggest correction