Oops, an error
Loading. Please wait.

Que Dirá El Santo Padre tab

50 views 1 this week
no commentswrite comment
1 2 3 4 5
3 more votes to show rating
add to favorites
×
Save as Personal and add changes to this tab that will be seen only by you. Learn more ›
×
You can save this tab as Personal to edit and correct it or add notes. All changes will be seen only by you. Learn more »
launch autoscroll
font size
0
reset
how to read this tab
guitar tuner
edit
Autoscroll
slow
fast
+/-
esc
set tempo
stop
Tono original Solm (cejillo 3º espacio)


E)-3-3-3-3-2-3-2-0-5-5-3-5-3-2-5-5-5-5-3-5-3-2-7-7-5-7-5-3-- (Se repite)
B)-0-0-0-0-0-0-0-0-0-0-0-0-0-0-0-0-0-0-0-0-0-0-0-0-0-0-0-0--
G)----------------------------------------------------------
D)-2-2-2-2-1-2-1---4-4-2-4-2-1-4-4-4-4-2-4-2-1-5-5-4-5-4-2--
A)---------------4------------------------------------------
E)----------------------------------------------------------

E)-0-0-0-0-0-0-0-0-0-0-0-0-0-0-0-0-0-0-0-0-0-0-0-0-0-0-0-0--
B)-5-5-5-5-3-5-3-2-3-3-2-3-2-0-3-3-3-3-2-3-2-0-0-0-0-0-0-0--
G)-6-6-6-6-4-6-4-2-4-4-2-4-2-0-4-4-4-4-2-4-2-0-0-0---0------
D)-------------------------------------------------4---4-2--
A)----------------------------------------------------------
E)----------------------------------------------------------

SOL SI7 MIm
SOL SI7 MIm

A)
MIm                        Si7/fa#
Miren como nos hablan de libertad
                                MIm
cuando de ella nos privan en realidad
                           Si7/Fa#
Miren como pregonan tranquilidad
                              MIm
cuando nos atormenta la autoridad


B)
LA
Que dira el santo padre
            SOL
que vive en roma
que le estan degollando
Si7/fa#   MIm
a su paloma

SOL Si7/Fa# MIm
SOL Si7/Fa# MIm

A)
Miren como nos hablan del paraiso
cuando nos llueven penas como granizo
Miren el entusiasmo con la sentencia
Sabiendo que mataban a la inocencia

B)
Que dira el santo padre
que vive en roma
que le estan degollando
a su paloma

A)
El que oficia la muerte como un verdugo
tranquilo esta tomando su desayuno
con esto se pusieron la soga al cuello
el quinto mandamiento no tiene sello

B)
Que dira el santo padre
que vive en roma
que le estan degollando
a sus paloma

A)
Mientras más injusticia, señor Fiscal
Más fuerzas tiene mi alma para cantar
Lindo segar el trigo en el sembrao
Regado con tu sangre Julián Grimau

B)
:/Que dira el santo padre
que vive en roma
que le estan degollando
a sus paloma:/

            
            
Suggest correction
Creating personal tab
Creating personal tab
You can edit any tab online and save it as your Personal.

You can edit, replace or remove any tab part or add personal notes – all changes will be seen only by you.

Personal tabs can be accessed anytime from any device, even offline.
Learn more »
Give kudos to tab author, rate the tab!
1 2 3 4 5
comments
print report bad tab
guest
Wanna post a correction for this tab? Suggest correction