Oops, an error
Loading. Please wait.

Backliners tab

36 views 3 this week
no commentswrite comment
1 2 3 4 5
3 more votes to show rating
add to favorites
×
Save as Personal and add changes to this tab that will be seen only by you. Learn more ›
×
You can save this tab as Personal to edit and correct it or add notes. All changes will be seen only by you. Learn more »
launch autoscroll
font size
0
reset
how to read this tab
guitar tuner
edit
Autoscroll
slow
fast
+/-
esc
set tempo
stop
QUIQUE GONZALEZ - BACKLINERS (AVERíA Y REDENCIóN 7)
Guitarra 1
e-|-------3-------3-----------3-------------------3----------------------
B-|---3-5---5-3-5---------3-5---5-3-5-3-------3-5---5-3-5-3-------3------
G-|-4--- ------- -------4--- -----------4---4----------- ---4-2-4--------
D-|----- ------- ----------- ------- ----------- ------- ------- --------
A-|----- ------- ----------- ------- ----------- ------- ------- --------
E-|----- ------- ----------- ------- ----------- ------- ------- --------
        -       -           -       -           -       -       -
        -       -           -       -           -       -       -
        MIm     DO          SOL     RE          MIm     DO      SOL   SOL
Guitarra 2      -           -       -           -       -       -
e-|----- ------- ----------- ------- ----------- ------- ------- --------
B-|----- ---0--- ---1------- ---0--- ---3------- ---0--- ---1--- ---0----
G-|----- ---0--- ---0------- ---0--- -2---2----- ---0--- ---0--- ---0----
D-|----- -2----- -2--------- -------0----------- -2----- -2----- --------
A-|-----2-------3----------- -2-----------------2-------3------- -2------
E-|-------------------------3-----------------------------------3--------

    MIm                DO
Estaréis comprando un sándwich
   SOL      RE
en la gasolinera
    MIm           DO
revisando los mensajes
      SOL     SOL
en el móvil.
    MIm                DO
Estaréis pensando en alguien
   SOL      RE
devorando carretera
    MIm           DO           SOL
ahora sólo soy un chico con problemas.
    MIm                DO
Estaréis en Buenos Aires
   SOL      RE
estaréis en Antequera
    MIm           DO             SOL      SOL
durmiendo en el sleeper de un backliner.

   RE         REsus RE  DO
Mañana no estaréis aquí
MIm       DO                 MIm
para las chicas del rock and roll.
          DO                 RE
para las chicas del rock and roll.


Si la prueba fue un desastre,
la sala estaba llena
"no te quedes con lo malo, nena",
te decía tu road manager
fírmame la camiseta
para todas las sobrinas del alcalde.

Mañana no estaréis aquí
para las chicas del rock and roll.
Suggest correction
Creating personal tab
Creating personal tab
You can edit any tab online and save it as your Personal.

You can edit, replace or remove any tab part or add personal notes – all changes will be seen only by you.

Personal tabs can be accessed anytime from any device, even offline.
Learn more »
Give kudos to tab author, rate the tab!
1 2 3 4 5
comments
print report bad tab
guest
Wanna post a correction for this tab? Suggest correction