Oops, an error
Loading. Please wait.

Cuando Estés En Vena tab

206 views 1 this week
no commentswrite comment
1 2 3 4 5
3 more votes to show rating
add to favorites
×
Save as Personal and add changes to this tab that will be seen only by you. Learn more ›
×
You can save this tab as Personal to edit and correct it or add notes. All changes will be seen only by you. Learn more »
launch autoscroll
font size
0
reset
how to read this tab
guitar tuner
edit
Autoscroll
slow
fast
+/-
esc
set tempo
stop
hay ke escuchar la cancion para saber donde
 van los cambios con la letra,es muy facil y me encanta tocarla

Intro=
E |---- ---- ---- ----|---- ---- ---- ----|
B |---- ---- ---- ----|---- ---- ---- ----|
G |---- 2--- ---- 2---|---- 2--- ---- 2---|
D |--0- --0- --0- --0-|--2- --2- --0- --0-|
A |---- ---- ---- ----|0--- ---- 2--- ----|
E |3--- ---- 2--- ----|---- ---- ---- ----|
                                       cuando
E |---- ---- ---- ----|----  ---- ----  ----|
B |---- ---- ---- ----|----  ---- ----  ----|
G |---- 2--- ---- 2---|----  --2- ----  --2-|
D |--0- --0- --0- --0-|--0h2 ---- --0h2 ----|
A |---- ---- ---- ----|0---  ---- 0---  ----|
E |3--- ---- 2--- ----|----  ---- ----  ----|


Estrofa:
  estes  en  vena    acuerdate de mi
E |---- ---- ---- ----|---- ---- ---- ----|
B |---- ---- ---- ----|---- ---- ---- ----|
G |---- 2--- ---- 2---|---- 2--- ---- 2---|
D |--0- --0- --0- --0-|--2- --2- --0- --0-|
A |---- ---- ---- ----|0--- ---- 2--- ----|
E |3--- ---- 2--- ----|---- ---- ---- ----|

tratare D ondear MI bandera               sere ....
E |---- ---- ---- ----|----  ---- ----  ----|
B |---- ---- ---- ----|----  ---- ----  ----|
G |---- 2--- ---- 2---|----  --2- ----  --2-|
D |--0- --0- --0- --0-|--0h2 ---- --0h2 ----|
A |---- ---- ---- ----|0---  ---- 0---  ----|
E |3--- ---- 2--- ----|----  ---- ----  ----|

Estribillo:
estes en vena                           cuando
E |---- ---- ---- ----|---- ---- ---- ----|
B |---- ---- ---- ----|---- ---- ---- ----|
G |---- 2--- ---- 2---|---- 2--- ---- 2---|
D |--0- --0- --0- --0-|--0- --0- --2- --2-|
A |5--- ---- 4--- ----|2--- ---- 0--- ----|
E |---- ---- ---- ----|---- ---- ---- ----|

estes en vena
E |---- ---- ---- ----|----  ---- ----  ----|
B |---- ---- ---- ----|----  ---- ----  ----|
G |---- 2--- ---- 2---|----  --2- ----  --2-|
D |--0- --0- --0- --0-|--0h2 ---- --0h2 ----|
A |---- ---- ---- ----|0---  ---- 0---  ----|
E |3--- ---- 2--- ----|----  ---- ----  ----|


Estribillo 2 (igual ke el 1º ,solo ke se toca la 2º cuerda )

E |---- ---- ---- ----|---- ---- ---- ----|
B |---- 3--- ---3 ----|---- 3--- ---- 3---|
G |--2- --2- --2- -2--|--2- --2- --2- --2-|
D |0--- ---- ---- ----|---- ---- ---- ----|
A |---- ---- 4--- ----|2--- ---- 0--- ----|
E |---- ---- ---- ----|---- ---- ---- ----|


E |---- ---- ---- ----|----  ---- ----  ----|
B |---- ---- ---- ----|----  ---- ----  ----|
G |---- 2--- ---- 2---|----  --2- ----  --2-|
D |--0- --0- --0- --0-|--0h2 ---- --0h2 ----|
A |---- ---- ---- ----|0---  ---- 0---  ----|
E |3--- ---- 2--- ----|----  ---- ----  ----|


estrofa :


Cuando estés en vena
acuérdate de mí,
trataré de ondear mi bandera,
seré tu cable a tierra,
daremos una vuelta por ahí.

A veces no hay manera,
aléjate de mí
si te encuentras buscando pelea.
Seré la noche entera
tu nube pasajera por fin.

estribillo 1 :

Cuando estés en vena,
cuando estés en vena
cuando estés en vena
cuando estés en vena.

estrofa:

Pedimos más madera,
queríamos vivir
sin tener que contar las estrellas.
Cuando me di la vuelta
estabas empezándote a vestir.

«Esa canción me suena»,
dijiste para ti,
sin saber encontrar la respuesta.
Seré tu nube negra,
tu pelo de tormenta por fin.

estribillo 2:

Cuando estés en vena,
cuando estés en vena,
cuando estés en vena,
cuando estés en vena.

| G | A | (x4)


estribillo 2:


Cuando estés en vena,
cuando estés en vena,
cuando estés en vena,
cuando estés en vena.


No me lo creo nena,
no me lo creo nena,
no me lo creo nena,
no me lo creo nena.


estrofa :
sere tu

 cable  A  tierra                         LA
E |---- ---- ---- ----|---- ---- ---- ----|
B |---- ---- ---- ----|---- ---- ---- ----|
G |---- 2--- ---- 2---|---- 2--- ---- 2---|
D |--0- --0- --0- --0-|--2- --2- --0- --0-|
A |---- ---- ---- ----|0--- ---- 2--- ----|
E |3--- ---- 2--- ----|---- ---- ---- ----|

estela de un cometa  por   ti
E |---- ---- ---- ----|---------------
B |---- ---- ---- ----|-----3--------
G |---- 2--- ---- 2---|----2-------------------
D |--0- --0- --0- --0-|---0------------------
A |---- ---- ---- ----|-------------------
E |3--- ---- 2--- ----|---------------

            
            
Suggest correction
Creating personal tab
Creating personal tab
You can edit any tab online and save it as your Personal.

You can edit, replace or remove any tab part or add personal notes – all changes will be seen only by you.

Personal tabs can be accessed anytime from any device, even offline.
Learn more »
Give kudos to tab author, rate the tab!
1 2 3 4 5
comments
print report bad tab
guest
Wanna post a correction for this tab? Suggest correction