Oops, an error
Loading. Please wait.

Lo Voy A Derribar chords

53 views 1 this week
no commentswrite comment
1 2 3 4 5
3 more votes to show rating
add to favorites
×
Save as Personal and add changes to this tab that will be seen only by you. Learn more ›
×
You can save this tab as Personal to edit and correct it or add notes. All changes will be seen only by you. Learn more »
launch autoscroll
font size
0
reset
transpose
0
reset
simplify chords
display chords
guitar tuner
edit
Autoscroll
slow
fast
+/-
esc
set tempo
stop
Strumming
There is no strumming pattern for this song yet. and get +5 IQ
Intro:
E|-3--------0-------------------|---------0-----------------------|
B|------------------1-----------|-1---3-------3-------1-----------|
G|------------------------------|---------------------------------|
D|--------------------------2---|-----------------------------3---|
A|-3----3-------3-------3-------|-----------------3-------3-------|
E|------------------------------|---------------------------------|


E|---------------------------------|---------------------------------|
B|-------------1-------0-------1---|---------------------1-----------|
G|-----0---------------------------|-------------0-----------0-------|
D|---------------------------------|-----2-----------------------3---|
A|-3-------3-------3-------3-------|-3-------3-------3---------------|
E|---------------------------------|---------------------------------|

E|-----------------------------1---|-----0---------------------------|
B|-------------1-------3-----------|-------------3-------1-----------|
G|-----0---------------------------|---------------------------------|
D|---------------------------------|-----------------------------3---|
A|-3-------3-------3-------3-------|-3-------3-------3-------3-------|
E|---------------------------------|---------------------------------|

E|---------------------------------|---------------------------------|
B|---------------------------------|-------------1-------------------|
G|---------------------0-----------|-----0---------------0-----------|
D|-----3-------2---0-----------2---|---------------------------------|
A|-3-------3---------------3-------|-3-------3-------3-------3-------|
E|---------------------------------|---------------------------------|


C
Nadie  puede contigo y te llaman la atención
menos mal que queda algún amigo desconocido aún

Nadie puede salvarte y te daba la impresión
¿pero quién iba a dejarte a ti durmiendo en la calle?

G             Dm          Am    G
Mal, cuando jugabas al despiste
Bm            C                G
Mal, cuando salias a por todas
     Bm             C            D/F#
Y en una decisión fatal te desmarcabas
     G    G/F# Em
pero yo tenia  fe

   Fmaj7              Dm
lo voy a derribar por ti
   Fmaj7      Dm      G
lo voy a derribar por ti

Repetir intro

(viene de C)
| C | Fmaj7 C | C | Fmaj7 C | C |

          Fmaj7 C            Fmaj7  C
Si bajo a la ciudad, tendría que driblar
   G          C      Fmaj7
la luna de marfil en vez de chocar

C
Nadie  puede contigo y te llaman la atención
¿pero quién iba a dejarte a ti durmiendo en la calle?
Suggest correction
Creating personal tab
Creating personal tab
You can edit any tab online and save it as your Personal.

You can edit, replace or remove any tab part or add personal notes – all changes will be seen only by you.

Personal tabs can be accessed anytime from any device, even offline.
Learn more »
Give kudos to tab author, rate the tab!
1 2 3 4 5
comments
print report bad tab
guest
Wanna post a correction for this tab? Suggest correction