Oops, an error
Loading. Please wait.

Salitre tab

224 views 1 this week
no commentswrite comment
1 2 3 4 5
3 more votes to show rating
add to favorites
×
Save as Personal and add changes to this tab that will be seen only by you. Learn more ›
×
You can save this tab as Personal to edit and correct it or add notes. All changes will be seen only by you. Learn more »
launch autoscroll
font size
0
reset
how to read this tab
guitar tuner
edit
Autoscroll
slow
fast
+/-
esc
set tempo
stop
Salitre
 Quique González

 Cejilla en el cuarto traste: un A suena como un C#

 Partes instrumentales (Parte A):

               Amaj7 A     Amaj7         Aadd6     Amaj7add9
                X         X         X         X    X    X
E |------------ ----|---- ---- ---- ----|---- ---- ---- ----|
B |------------ ----|---- ---- ---- ----|---- ---- --0- ----|
G |------------ --1-|h2-- ---- --1- ----|--2- --2- --1- --1-|
D |------------ --2-|---- ---- 2--- --2-|h4-- --4- ---- --2-|
A |------------ --0-|---- --0- ---- --0-|---- --0- --0- --0-|
E |------------ ----|---- ---- ---- ----|---- ---- ---- ----|
                    |--> Repetir desde aquí


 atacando directamente el Add6, es decir, no suena el 2.

 En la estrofa alterna la de arriba con lo siguiente (Parte B):


               Amaj7 A     Amaj7         Aadd6     Amaj7add9
                X         X         X         X         X
E |------------ ----|---- ---- ---- ----|---- ---- ---- ----|
B |------------ ----|---- ---- ---- ----|---- ---- --0- ----|
G |------------ ----|--2- ---- --1- ----|--2- ---- 1--- ----|
D |------------ ----|2--- ---- 2--- ----|4--- ---- ---- ----|
A |------------ --0-|---- --0- ---- --0-|---- --0- ---- --0-|
E |------------ ----|---- ---- ---- ----|---- ---- ---- ----|
                    |--> Repetir desde aquí


 En el estribillo hace esto (Parte C):


               Amaj7 A      Amaj7add9 E     Amaj7add9     F#m
                X         X         X         X         X
E |------------ ----|---- ---- ---- ----|---- ---- ---- ----|
B |------------ ----|---- ---- --0- ----|--0- ---- --0- ----|
G |------------ --1-|h2-- ---- --2- ----|--1- ---- --2- ----|
D |------------ --2-|---- ---- --2- ----|--2- ---- --2- ----|
A |------------ --0-|---- --0- ---- ----|---- --0- ---- ----|
E |------------ ----|---- ---- ---- --0-|---- ---- ---- --2-|


   F#m    E        Asus4     Aadd6 Amaj7add9
        X         X         X    X    X
E |---- ---- ---- ----|---- ---- ---- ----|
B |--2- ---- --0- ----|--3- ---- --0- ----|
G |--2- ---- --1- ----|--2- --2- --1- --2-|
D |--4- ---- --2- ----|--2- --4- ---- --1-|
A |---- ---- ---- --0-|---- --0- --0- --0-|
E |---- --0- ---- ----|---- ---- ---- ----|


 Por último, en la mejor parte de la canción,
esa que dice "Y ahora tendré que salir a buscarme...",
 empieza como en una parte instrumental (Parte A) y luego
enlaza con esto (Parte D):


               Amaj7 A     Amaj7         Aadd6     Amaj   F#m
                X         X         X         X    X    X
E |------------ ----|---- ---- ---- ----|---- ---- ---- ----|
B |------------ ----|---- ---- ---- ----|---- ---- --0- ----|
G |------------ --1-|h2-- ---- --1- ----|--2- --2- --1- ----|
D |------------ --2-|---- ---- 2--- --2-|h4-- --4- ---- ----|
A |------------ --0-|---- --0- ---- --0-|---- --0- --0- ----|
E |------------ ----|---- ---- ---- ----|---- ---- ---- --2-|


   F#m              E                   D/A                  E
        X         X         X         X         X         X
E |---- ---- ---- ----|---- ---- ---- ----|---- ---- ---- ----|
B |--2- ---- --2- ----|--0- ---- --0- ----|--3- ---- --3- ----|
G |--2- ---- --2- ----|--1- ---- --1- ----|--2- ---- --2- ----|
D |--2- ---- --2- ----|--2- ---- --2- ----|--2- ---- --2- ----|
A |---- ---- ---- ----|---- ---- ---- --0-|0--- --0- 0--- ----|
E |2--- --2- 2--- --0-|0--- --0- 0--- ----|---- ---- ---- ---0|

E              Amaj7
     X        X
---- ---- ---- ----|
--0- ---- --0- ----|
--1- ---- --1- --1-|
--2- ---- --2- --2-|
---- ---- ---- --0-|
0--- --0- 0--- ----|
Parte A x 4


Parte B y al final de cada estrofa, parte A

Te acariciaba el viento de poniente
Te llevó a la arena bañada en salitre
Te acariciaba un marinero en tierra
pero esta vez no era yo

Te conocí en Conil de la Frontera
Nunca es primavera donde tú creciste
Sigues teniendo carita de pena
pero no me mires con tus ojos tristes


Parte C

Bañada en salitre
flota en la memoria de los días grises
Fumo en la ventana
veo tu silueta sobre el arrecife


Parte A x 2


Parte B y al final de cada estrofa, parte A

Algunas flores crecen en las dunas
sube la marea y se hacen invisibles
Algunas duermen a la luz de la luna
persiguiendo sueños imposibles


Parte C

Bañada en salitre
flota en la memoria de los días grises
Fumo en la ventana
veo tu silueta sobre el arrecife


Solo: A | F#m E | D E


Parte C

Bañada en salitre
flota en la memoria de los días grises
Fumo en la ventana


Parte A

Ahora tendré que salir a buscarme
alguien que me arranque de cuajo la pena

Parte D

De alguna manera tendré que olvidarte
tengo que olvidarte de alguna manera


Parte C

Bañada en salitre
flota en la memoria de los días grises
Fumo en la ventana


Parte A


Ahora tendré que salir a buscarte...

Ahora tendré que salir a buscarte...

Para mi gordinflas

            
            
Suggest correction
Creating personal tab
Creating personal tab
You can edit any tab online and save it as your Personal.

You can edit, replace or remove any tab part or add personal notes – all changes will be seen only by you.

Personal tabs can be accessed anytime from any device, even offline.
Learn more »
Give kudos to tab author, rate the tab!
1 2 3 4 5
comments
print report bad tab
guest
Wanna post a correction for this tab? Suggest correction