Oops, an error
Loading. Please wait.

Vidas Cruzadas tab

443 views 3 this week
no commentswrite comment
1 2 3 4 5
3 more votes to show rating
add to favorites
×
Save as Personal and add changes to this tab that will be seen only by you. Learn more ›
×
You can save this tab as Personal to edit and correct it or add notes. All changes will be seen only by you. Learn more »
launch autoscroll
font size
0
reset
how to read this tab
guitar tuner
edit
Autoscroll
slow
fast
+/-
esc
set tempo
stop
____ acordes ____________
|                       |
| Am:   002210          |
| C:    032010          |
| G:    320003 (355433) |
| Em:   022000          |
| F:    133211          |
|_______________________|


[intro]:
                      Am
E-||-----------------|-----------7-----|
B-||--------------8-8s10--10--10---10-8|
G-||------------9----|-----------------|
D-||-----------------|-----------------|
A-||-----------------|-----------------|
E-||-----------------|-----------------|

    C                 Am
E-||-----------------|-----------7-----|
B-||--------------8-8s10--10--10---10-8|
G-||9-----------9----|-----------------|
D-||-----------------|-----------------|
A-||-----------------|-----------------|
E-||-----------------|-----------------|

    C                 G
E-||-----------------|-----------------|
B-||--------------8--|--8---------8----|
G-||9-----------9--9-|7---------7------|
D-||-----------------|--------9-------9|
A-||-----------------|-----------------|
E-||-----------------|-----------------|

    C                 F
E-||-------------8---|----8-----------8|
B-||----------8----8s10-----10-8-----10|
G-||-------9---------|-----------10--10|
D-||10---------------|-----------------|
A-||-----------------|-----------------|
E-||-----------------|-----------------|


      Am     C
Al arder la rama
        Am                  C
las estrellas ardieron también
       G      C
y una vez en calma,
        F
me largué.

             Am     C
Quiero amanecer mañana
         Am                   C
como un loco después de las seis,
         G        C
en un hotel sin dramas
      F
esta vez.


             C
Vidas que dejé cruzadas
  Em               Am
vienen encendiéndose,
             C
Vidas que dejé cruzadas
   Em               Am  F F
vienen persiguiéndome.


               Am     C
Llevo todo el día en cama
          Am                   C
con el volúmen de la tele al tres,
        G     C
viendo caras largas
          F
de John Waine


             C
Vidas que dejé cruzadas
  Em               Am
vienen encendiéndose,
             C
Vidas que dejé cruzadas
   Em               Am   F
vienen persiguiéndome.

 G     C
Lucha con un movimiento,
 G          C              F
    una luciérnaga azul y tú,
      G
para ya,
           F
¿no ves que hay
      G
una luz
       F
en el fon-
       G
do de mi
     Am
corazón?


[intro]


             C
Vidas que dejé cruzadas
  Em               Am
vienen encendiéndose,
             C
Vidas que dejé cruzadas
   Em               Am   F
vienen persiguiéndome.


 G     C
Lucha con un movimiento,
 G          C              F
    una luciérnaga azul y tú,
      G
para ya,
           F
¿no ves que hay
      G
una luz
       F
en el fon-
       G
do de mi
     Am
corazón?


[intro]


C


###------------------------------###
### Tablatura de: Enrique Moraño ###
### Sevilla [Spain]     DIC-2006 ###
###      emorano@     ###
###------------------------------###
Suggest correction
Creating personal tab
Creating personal tab
You can edit any tab online and save it as your Personal.

You can edit, replace or remove any tab part or add personal notes – all changes will be seen only by you.

Personal tabs can be accessed anytime from any device, even offline.
Learn more »
Give kudos to tab author, rate the tab!
1 2 3 4 5
comments
print report bad tab
guest
Wanna post a correction for this tab? Suggest correction