Oops, an error
Loading. Please wait.

Clausura bass

11 views 1 this week
no commentswrite comment
1 2 3 4 5
3 more votes to show rating
add to favorites
×
Save as Personal and add changes to this tab that will be seen only by you. Learn more ›
×
You can save this tab as Personal to edit and correct it or add notes. All changes will be seen only by you. Learn more »
launch autoscroll
font size
0
reset
guitar tuner
edit
Autoscroll
slow
fast
+/-
esc
set tempo
stop
porsiacael numero que aparece en pàrentesis
es la cantidad de veces que debes tocar
ej
6(8) = 6 6 6 6 6 6 6 6

Intro
         x3              x3               x3         x3
E|----|-2----|-2--|-4-|-4024-|-404-|---|-7----|---|--9----|--9---|
A|--2-|--0-2-|--2-|---|------|-----|-7-|--5-7-|-9-|-9-7-9-|-9-9--| x2
D|----|------|----|---|------|-----|---|------|---|-------|------|
G|----|------|----|---|------|-----|---|------|---|-------|------|

No, no me pidas perdon
E|-------|------|-4(7)-|------|------|-------|
A|--2(8)-|-1(8)-|------|-6(8)-|-7(8)-|-9(8)--|
D|-------|------|------|------|------|-------|
G|-------|------|------|------|------|-------|

por que no
E|-------|-4(8)-|------|-------|
A|--2(8)-|------|-7(8)-|-9(8)--| x2
D|-------|------|------|-------|
G|-------|------|------|-------|

E|-------|------|-0-|-2--|
A|--2(8)-|-1(8)-|---|----| x2
D|-------|------|---|----|
G|-------|------|---|----|

no no me
                   x4
E|-------|------|------|-4(8)-|------|------|-------|
A|--2(8)-|-1(8)-|-22-2-|------|-6(8)-|-7(8)-|-9(8)--|
D|-------|------|------|------|------|------|-------|
G|-------|------|------|------|------|------|-------|

por que no
E|-------|-4(8)-|------|-------|
A|--2(8)-|------|-7(8)-|-9(8)--| x2
D|-------|------|------|-------|
G|-------|------|------|-------|

E|-------|------|-0-|-2--|
A|--2(8)-|-1(8)-|---|----| x2
D|-------|------|---|----|
G|-------|------|---|----|

por que no
E|-------|-4(8)-|------|-------|
A|--2(8)-|------|-7(8)-|-9(8)--| x2
D|-------|------|------|-------|
G|-------|------|------|-------|

E|-------------------|
A|--2-2-2-2-2-2-2-2--|
D|-------------------|
G|-------------------|

atte. miauricio gatolar

            
            
Suggest correction
Creating personal tab
Creating personal tab
You can edit any tab online and save it as your Personal.

You can edit, replace or remove any tab part or add personal notes – all changes will be seen only by you.

Personal tabs can be accessed anytime from any device, even offline.
Learn more »
Give kudos to tab author, rate the tab!
1 2 3 4 5
comments
print report bad tab
guest
Wanna post a correction for this tab? Suggest correction