Oops, an error
Loading. Please wait.

Muñequita Morena tab

55 views 1 this week
no commentswrite comment
1 2 3 4 5
3 more votes to show rating
add to favorites
×
Save as Personal and add changes to this tab that will be seen only by you. Learn more ›
×
You can save this tab as Personal to edit and correct it or add notes. All changes will be seen only by you. Learn more »
launch autoscroll
font size
0
reset
how to read this tab
guitar tuner
edit
Autoscroll
slow
fast
+/-
esc
set tempo
stop
Que tal amigos soy joseluis este es el primera transcripcion
que envío espero que les guste.

Intro:
e|-----------------------------------------------------------------------|
B|-----------------------------------------------------------------------|
G|------------------6-------------4------2-------------------------------|
D|-------0-2-4-5-4---7-4-6/7-6-4---5-2-5--5--4/5-5-5-4-2-----------------|
A|-0-2-4-------------------------------------------------5-4-3-0-2-4-5-4-|
E|-----------------------------------------------------------------------|

esto no es mas que una octava mas abajo
e|-----------2-3-2---9---------------7-----5-----------------------------|
B|-----2-3-5----------10-7-9/10-9-7---8-5-8-8--7/8-8-8-7-5---------------|
G|-2-4----------------------------------------------------7-6-4-4-6-7-6--|
D|-------------------------------------------------------------7---------|
A|-----------------------------------------------------------------------|
E|-----------------------------------------------------------------------|

     RE                 FA#m
Muñequita tu nombre en silecio
            SOL              LA
tu boca chiquita yo quiero besar
      RE               FA#m
princesita la novia del viento
            SOL              LA
cuerpito moreno yo te quiero amar

     RE                FA#m
Angelito me mata tu ausencia
            SOL
me hiere tu olvido
            LA
no puedo vivir si no estas
     RE                FA#m
Esperando me digas tus cosas
              SOL  LA
despacito al oido
            RE              FA#m
te voy a cantar te voy a cantar
          SOL      LA
te voy a cantaaa...ar


 Solo
e|-----------------------------------------------------------------------|
B|-----------------------------------------------------------------------|
G|------------------6-------------4------2-------------------------------|
D|-------0-2-4-5-4---7-4-6/7-6-4---5-2-5--5--4/5-5-5-4-2-----------------|
A|-0-2-4-------------------------------------------------5-4-3-0-2-4-5-4-|
E|-----------------------------------------------------------------------|

e|-----------2-3-2---9---------------7-----5-----------------------------|
B|-----2-3-5----------10-7-9/10-9-7---8-5-8-8--7/8-8-8-7-5---------------|
G|-2-4----------------------------------------------------7-6-4-4-6-7-6--|
D|-------------------------------------------------------------7---------|
A|-----------------------------------------------------------------------|
E|-----------------------------------------------------------------------|

        RE                FA#m
cuando veo danzando a las rosas
              SOL
con musica al viento
             LA
te juro eres tu
        RE          FA#m
y si escucho asomar al di
          SOL
al rio cantando
          LA
su voz eres tu

    RE                FA#m
Angelito me mata tu ausencia
              SOL
me hiere tu olvido
           LA
no puedo vivir si no estas.
    RE                 FA#m
Esperando me digas tus cosas
             SOL   LA
despacito al oido
          RE                 FA#m
te voy a cantar, te voy a cantar
             SOL   LA
te voy a cantaaa...ar

NO OLVIDEN CALIFICARLA
Suggest correction
Creating personal tab
Creating personal tab
You can edit any tab online and save it as your Personal.

You can edit, replace or remove any tab part or add personal notes – all changes will be seen only by you.

Personal tabs can be accessed anytime from any device, even offline.
Learn more »
Give kudos to tab author, rate the tab!
1 2 3 4 5
comments
print report bad tab
guest
Wanna post a correction for this tab? Suggest correction