Oops, an error
Loading. Please wait.

Les Chansons Damour - Ma Mémoire Sale chords

1,929 views 18 this week
no commentswrite comment
1 2 3 4 5
x 3
add to favorites
×
Save as Personal and add changes to this tab that will be seen only by you. Learn more ›
×
You can save this tab as Personal to edit and correct it or add notes. All changes will be seen only by you. Learn more »
launch autoscroll
font size
0
reset
transpose
0
reset
simplify chords
display chords
guitar tuner
edit
Autoscroll
slow
fast
+/-
esc
set tempo
stop
Strumming
There is no strumming pattern for this song yet. and get +5 IQ
CAPO 1

Cadd9 = x32030
Em = 022030
Bm = x24432
Dsus2 = xx0230


Main riff (Intro) x2
 Cadd9               Em
-------------------------0---------0----|
-----3---------3------------------------|
-------0---------0-----0---0-----0------|
---2-----2---2-----2---------2----------|
-3---------3----------------------------|
---------------------0---------0--------|

Main riff (Verse) x2
 Cadd9               Em              Cadd9               Em
-------------------------0---------0-------------------------0---------0---|
-----3---------3-------------------------3---------3-----------------------|
-------0---------0-----0---0-----0---------0---------0-----0---0-----0-----|
---2-----2---2-----2---------2---------2-----2---2-----2---------2---------|
-3---------3-------------------------3---------3---------------------------|
---------------------0---------0-------------------------0---------0-------|

 Bm                  Dsus2              Em Bm Dsus2 Cadd9 Em
-------------------------0---------0-----|
-----3---------3-----------3---------3---|
-------4---------4-----2-----2---2-------|
---4-----4---4-----4-0---------0---------|
-2---------2-----------------------------|
-----------------------------------------|

End of main riff (Verse) x1
 Cadd9               Em
-------------------------0---------0----|
-----3---------3------------------------|
-------0---------0-----0---0-----0------|
---2-----2---2-----2---------2----------|
-3---------3----------------------------|
---------------------0---------0--------|


Caad9 Em (x2)

Cadd9
Lave
Em                                 Cadd9
Ma mémoire sale dans son fleuve de boue
Em                                  Bm
Du bout de ta langue nettoie moi partout
            Dsus2             Em
Et ne laisse pas la moindre trace
   Bm            Dsus2            Cadd9
De tout ce qui me lie et qui me lasse
  Em
Hélas


Cadd9
Chasse
Em                                           Cadd9
Traque-la en moi, ce n'est qu'en moi qu'elle vit
Em                                         Bm
Et lorsque tu la tiendras au bout de ton fusil  
        Dsus2              Em
N'écoute pas si elle t'implore
   Bm                  Dsus2                 Cadd9
Tu sais qu'elle doit mourir d'une deuxième mort
 Em          Cadd9 Em
Alors... tue-la encore


Cadd9
Pleure
Em                                        Cadd9
Je l'ai fait avant toi et ça ne sert à rien
Em                                        Bm
A quoi bon les sanglots, inonder les coussins
        Dsus2           Em
J'ai essayé, j'ai essayé
     Bm              Dsus2                Cadd9
Mais j'ai le coeur sec et les yeux gonflés
     Em               Cadd9             Em
Mais j'ai le coeur sec et les yeux gonflés


      Cadd9
Alors brûle
Em                                             Cadd9
Brûle quand tu t'enlises dans mon grand lit de glace
Em                                               Bm
Mon lit comme une banquise qui fond quand tu m'enlaces
               Dsus2                       Em
Plus rien n'est triste, plus rien n'est grave
     Bm                Dsus2            Cadd9
Si j'ai ton corps comme un torrent de lave


Em                                 Cadd9
Ma mémoire sale dans son fleuve de boue
Em
Lave
Cadd9
Lave

Em                                 Cadd9
Ma mémoire sale dans son fleuve de boue
Em
Lave

Cadd9 Em Cadd9 Em

______________________________________________

ENJOY!!
soundcloud.com/diego-a-m
Suggest correction
Creating personal tab
Creating personal tab
You can edit any tab online and save it as your Personal.

You can edit, replace or remove any tab part or add personal notes – all changes will be seen only by you.

Personal tabs can be accessed anytime from any device, even offline.
Learn more »
Give kudos to tab author, rate the tab!
1 2 3 4 5
comments
print report bad tab
guest
You may want to rate the tab now too:
select rating
Wanna post a correction for this tab? Suggest correction