Oops, an error
Loading. Please wait.

Y Es Que Sucede Asi chords

version 3
version 3

Whole song

370 views 3 this week
no commentswrite comment
1 2 3 4 5
3 more votes to show rating
add to favorites
×
Save as Personal and add changes to this tab that will be seen only by you. Learn more ›
×
You can save this tab as Personal to edit and correct it or add notes. All changes will be seen only by you. Learn more »
launch autoscroll
font size
0
reset
transpose
0
reset
display chords
guitar tuner
edit
Autoscroll
slow
fast
+/-
esc
set tempo
stop
Author
Difficulty
Strumming
There is no strumming pattern for this song yet. and get +5 IQ
"Y es que sucede así"
By: Pedro Suárez Vértiz
Chords by: elhapps

[Verse]
            A
Después de tiempo
            C#m         
me la encontré otra vez           
G
estaba bella
  Bm 
como las estrellas
    A                      C#m
había desarrollado mas de lo que pensé
G        Bm          D                
Hola que tal como te va
                  Bm              F#m  E
Que lindo cuerpo tienes vamos a pasear
D           Bm               F#m  E                              
Estaba facinado al verla caminar
   
[Solo]
E|--------------------------------------------------------|
B|---0-2-0-0-0---2-3-3-3-2-0-----0-2-0-0-0---2-3-3-3-2-0--|
G|2-2---------2-2-----------2-2-2---------2-2-----------2-|
D|-------------4---------------------------4--------------|
A|--------------------------------------------------------|
E|--------------------------------------------------------|

[Verse]
         A              C#m
Se removieron mis recuerdos de niñez
G                  Bm
cuando en la acera linda estaba ella
    A                       C#m
jugando a las muñecas les daba de comer
G       Bm           D            
Hola dije quieres jugar
                 Bm               F#m  E 
Soy el mejor doctor de toda la ciudad
D             Bm              F#m  E         
me dijo si me besas me dejo curar
       
           A               C#m
Si en el tiempo pues nos solíamos ver
G                Bm              
noches traviesas bajo la escalera
A                       C#m               
Eramos perversos nos sentíamos bien
G          Bm             D               
Ahora el asunto es refrescar
                Bm                  F#m  E
todas aquellas cosas sin ser muy brutal
D             Bm                   F#m   E                       
Cogi su bella mano y la empezé a besar Oh oh

[Chorus]            
            A                   Em
Y es que sucede asi cuando una chica sensual
          Bm                  G                  A
puede sentir la explosión de un volcán y el delirio
         Em                    Bm                G               A
Si tu la sabes besar puede perder el control se olvida de su sitio

[Solo]            
E|--------------------------------------------------------|
B|---0-2-0-0-0---2-3-3-3-2-0-----0-2-0-0-0---2-3-3-3-2-0--|
G|2-2---------2-2-----------2-2-2---------2-2-----------2-|
D|-------------4---------------------------4--------------|
A|--------------------------------------------------------|
E|--------------------------------------------------------|

[Verse]
           A           C#m
Y en el silencio ella bajó la mirada
G            Bm
No dijo nada nunca dijo nada
A                      C#m
era como un sueño todo me salió bien
G        Bm                D           
Oye mi amor que hermosa estás
               Bm             F#m  E
Sigues con esa mágica sensualidad
D                Bm               F#m  E
Las cosas no terminan si sabes actuar

[Chorus]
            A                   Em
Y es que sucede asi cuando una chica sensual
          Bm                  G                  A
puede sentir la explosión de un volcán y el delirio
         Em                    Bm                G               A
Si tu la sabes besar suele perder el control se olvida de su sitio
[Solo]
E|--------------------------------------------------------|
B|---0-2-0-0-0---2-3-3-3-2-0-----0-2-0-0-0---2-3-3-3-2-0--|
G|2-2---------2-2-----------2-2-2---------2-2-----------2-|
D|-------------4---------------------------4--------------|
A|--------------------------------------------------------|
E|--------------------------------------------------------|
             A               
Después de tiempo
           C#m
me la encontré otra vez
G            Bm                  A
estaba bella y me la lleve a pasear


Note: Do it listening to the original song to learn it in the best way.
Don't forget to comment and rate :)

            
            
Suggest correction
Creating personal tab
Creating personal tab
You can edit any tab online and save it as your Personal.

You can edit, replace or remove any tab part or add personal notes – all changes will be seen only by you.

Personal tabs can be accessed anytime from any device, even offline.
Learn more »
Give kudos to tab author, rate the tab!
1 2 3 4 5
comments
print report bad tab
guest
You may want to rate the tab now too:
select rating
Wanna post a correction for this tab? Suggest correction