Oops, an error
Loading. Please wait.

スミレ Sumire tab

2,002 views 3 this week
1 commentread comment
1 2 3 4 5
2 more votes to show rating
add to favorites
×
Save as Personal and add changes to this tab that will be seen only by you. Learn more ›
×
You can save this tab as Personal to edit and correct it or add notes. All changes will be seen only by you. Learn more »
launch autoscroll
font size
0
reset
how to read this tab
guitar tuner
edit
Autoscroll
slow
fast
+/-
esc
set tempo
stop
Author
Difficulty
-------------------------------------------------------------------------------
                             Depapepe - スミレ
-------------------------------------------------------------------------------
Tabbed by: Sincostan
E-mail:

Tuning: Standard

Chord
Intro
C#m7 F#m7 Bm7 E 4x

Verse
C#m7 F#m7 Bm7 E 4x A A7

Bridge
A E C#m7 F#m7 Bm7 E A A7
A E C#m7 F#m7 Bm7 F# G#7

Main Theme
A7 E7 B C#m7 F#m7 G#7 C#m7 Bm7-E7
A Am B C#m F#m7 G#7

Main Theme End
A7 E7 B C#m7 F#m7 G#7 C#m7 Bm7-E7
A Am B C#m F#m7 G#7 C#7
A Am c#m7 F#m7 B 
C#7 F#7 E7-A7-D Dm C#m7 F#m7 
Bm7 - C#7
F#m7 F#m(F) F#m(E) B7 Bm7 E A

Outro
C#m7 F#m7 Bm7 E 4x D




Intro
e|--12-12-12-12-12-12-10-9-------------9-10-10-10-10-10-10-9-----------------| 
B|-------------------------9~--9-10-12-----------------------12-9~-9-10-12---| 
G|---------------------------------------------------------------------------| 2x
D|---------------------------------------------------------------------------| 
A|---------------------------------------------------------------------------| 
E|---------------------------------------------------------------------------| 

verse
e|----------7-4-5------------------------------------------------------------|
B|--5-----5---------5---------2~--3-------2-3-2---2-3------------------------|
G|----6-7-------------6---2-4---------2-4-------4----------------------------|
D|----------------------7----------/4----------------------------------------|
A|---------------------------------------------------------------------------|
E|---------------------------------------------------------------------------|

e|----------7-4-5-------------------------5-5--4-2-4-2-----------------------|
B|--5-----5---------5---------2-2~--3---3------------------------------------|
G|----6-7-------------6---4--------------------------------------------------|
D|----------------------7----------------------------------------------------|
A|---------------------------------------------------------------------------|
E|---------------------------------------------------------------------------|

e|----------7-4-5------------------------------------------------------------|
B|--5-----5---------5---------2--3-------2-3-2---2-3-------------------------|
G|----6-7-------------6---2-4--------2-4-------4-----------------------------|
D|----------------------7----------4-----------------------------------------|
A|---------------------------------------------------------------------------|
E|---------------------------------------------------------------------------|

e|----------7-4-5~---5-7-9-9--10~----------9~-10-9---------------------------|
B|--5-----5-----------------------10----10------------9h10-------------------|
G|----6-7----------------------------11------------11------------------------|
D|---------------------------------------------------------------------------|
A|---------------------------------------------------------------------------|
E|---------------------------------------------------------------------------|

Bridge
e|----------------------------10-------12-9h10h9-----------------------------|
B|--9--10--12--14-10-12-14-14----14-12-----------12-10-9-10-12-12------------|
G|---------------------------------------------------------------------------|
D|---------------------------------------------------------------------------|
A|---------------------------------------------------------------------------|
E|---------------------------------------------------------------------------|

e|-------------9----9h10h9---------------------------------------------------|
B|--9-10-12-12---12--------12-10-9-10----10-7-9-10-10-7-9-10-12--------------|
G|---------------------------------------------------------------------------|
D|---------------------------------------------------------------------------|
A|---------------------------------------------------------------------------|
E|---------------------------------------------------------------------------|

e|---------------------9~---9-9-10-9-10/12-----------------------------------|
B|--9-10-12-12-9-10-12-------------------------------------------------------|
G|---------------------------------------------------------------------------|
D|---------------------------------------------------------------------------|
A|---------------------------------------------------------------------------|
E|---------------------------------------------------------------------------|

e|--------------------------------10--------14-12-10-9-----------------------|
B|--9------9-10-12-14-10-12-14-14----14-12-------------12-10-----------------|
G|----9-11-------------------------------------------------------------------|
D|---------------------------------------------------------------------------|
A|---------------------------------------------------------------------------|
E|---------------------------------------------------------------------------|

e|------------------------9----9h10h9----------------------------------------|
B|--9-10-12-12-9-10-12-12---12--------12-10-9-10-9h10h9----------------------|
G|------------------------------------------------------11-9-----------------|
D|-----------------------------------------------------------12h11h12~-------|
A|---------------------------------------------------------------------------|
E|---------------------------------------------------------------------------|

e|---------------------------------------------------9-8---9-8---9-8---------|
B|----------------------9-10-9----------------9-10-9-----9-----9-----9~------|
G|--------9-11-11~---11----------------8-9-11--------------------------------|
D|--12-12-------------------------9-11---------------------------------------|
A|-----------------------------11--------------------------------------------|
E|---------------------------------------------------------------------------|

Main Theme
e|---------------------------------------------------------------------------|
B|--------------9~--------------------12/14-12~------------------------------|
G|--------9-11~----11-9-9h11~-8-9-11-----------8-11-11-9~--------------------|
D|--/9-11--------------------------------------------------------------------|
A|---------------------------------------------------------------------------|
E|---------------------------------------------------------------------------|

e|---------------------------------------------------------------------------|
B|-----9-10~-9-10-9----------------------------------------------------------|
G|------------------11~--9-11-11~-13~----------------------------------------|
D|--11-----------------------------------------------------------------------|
A|---------------------------------------------------------------------------|
E|---------------------------------------------------------------------------|

e|---------------------------------------------------------------------------|
B|--9-10-12-12-10~---10/12-10~----10-9~--------------------------------------|
G|-----------------9-------------------8-11-11-9~----------------------------|
D|-----------------------------11--------------------------------------------|
A|---------------------------------------------------------------------------|
E|---------------------------------------------------------------------------|

------------------------------------------------------------------------------
1 --> to Main theme ending

e|----------------------------------------8-9-11/12-back to intro------------|
B|----------------------9-------------8-9------------------------------------|
G|------------------------9-9h11~--------------------------------------------|
D|--/11-11--11-11-11-11------------------------------------------------------|
A|---------------------------------------------------------------------------|
E|---------------------------------------------------------------------------|

Back to Verse , Bridge , Main Theme

Main Theme Ending
e|---------------------------------------------------------------------------|
B|----------------------9-----------------9----------------------------------|
G|------------------------9-9h11~-----------11-10~---------------------------|
D|--/11-11--11-11-11-11------------------------------------------------------|
A|---------------------------------------------------------------------------|
E|---------------------------------------------------------------------------|

e|-----------------------------------12/14-12--------------------------------|
B|-----9-10-12-14~-12-10h12~-9-10-12----------9-11-11-10~--------------------|
G|--11-----------------------------------------------------------------------|
D|---------------------------------------------------------------------------|
A|---------------------------------------------------------------------------|
E|---------------------------------------------------------------------------|

e|-----9-10--9-10-9-----------------12-14-------------------12-12-14~--------|
B|------------------12~-10-12-12-14-------14\12-10-12/14-15------------------|
G|--11-----------------------------------------------------------------------|
D|---------------------------------------------------------------------------|
A|---------------------------------------------------------------------------|
E|---------------------------------------------------------------------------|

e|---------------------------12--14-16-16-17~--------------------------------|
B|--15-14-14h15~-12-14-15-15-------------------------------------------------|
G|---------------------------------------------------------------------------|
D|---------------------------------------------------------------------------|
A|---------------------------------------------------------------------------|
E|---------------------------------------------------------------------------|

e|--12-9----------------------------9-----9~---------------------------------|
B|-------10-----10-----10-----10-12---12-------------------------------------|
G|-----------11-----11-----11------------------------------------------------|
D|---------------------------------------------------------------------------|
A|---------------------------------------------------------------------------|
E|---------------------------------------------------------------------------|

e|----------------------------------9----------------------------------------|
B|------9-10~-9--10~-9--10~---10-12---12-10~---------------------------------|
G|----11-------11-----11----11-----------------------------------------------|
D|--11-----------------------------------------------------------------------|
A|---------------------------------------------------------------------------|
E|---------------------------------------------------------------------------|

e|-----9--10~-9-10-9---------------------------------------------------------|
B|-------------------12--10-9-9h10-------------------------------------------|
G|--11-----------------------------------------------------------------------|
D|---------------------------------------------------------------------------|
A|---------------------------------------------------------------------------|
E|---------------------------------------------------------------------------|

Outro
e|--12-12-12-12-12-12-10-9-------------9-10-10-10-10-10-10-9-----------------| 
B|-------------------------9~--9-10-12-----------------------12-9~-9-10-12---| 
G|---------------------------------------------------------------------------| 2x
D|---------------------------------------------------------------------------| 
A|---------------------------------------------------------------------------| 
E|---------------------------------------------------------------------------| 

************************************

| /   slide up
| \   slide down
| h   hammer-on
| p   pull-off
| ~   vibrato
| +   harmonic
| x   Mute note
| b   Bend
| pb  Pre-bend
| br  Bend release
| pbr Pre-bend release
| brb Bend release bend

************************************

            
            
Suggest correction
Creating personal tab
Creating personal tab
You can edit any tab online and save it as your Personal.

You can edit, replace or remove any tab part or add personal notes – all changes will be seen only by you.

Personal tabs can be accessed anytime from any device, even offline.
Learn more »
Give kudos to tab author, rate the tab!
1 2 3 4 5
comments
print report bad tab
1 comment total.
0 reply
ninjastarforcex 2,731 Oct 17, 2014 11:05 AM, edited on August 30 2016, 11:49 am

bad

guest
You may want to rate the tab now too:
select rating
Wanna post a correction for this tab? Suggest correction