Oops, an error
Loading. Please wait.

Valborg chords

version 4
version 4

Whole song

2,063 views 12 this week
1 commentread comment
1 2 3 4 5
3 more votes to show rating
add to favorites
×
Save as Personal and add changes to this tab that will be seen only by you. Learn more ›
×
You can save this tab as Personal to edit and correct it or add notes. All changes will be seen only by you. Learn more »
launch autoscroll
font size
0
reset
transpose
0
reset
simplify chords
display chords
guitar tuner
edit
Autoscroll
slow
fast
+/-
esc
set tempo
stop
Author
Strumming
There is no strumming pattern for this song yet. and get +5 IQ
Tabbed by Mårten Svenberg
contact: marten.svenberg@gmailcom
Good luck with the song

Intro

         D7          Gadd9               Cmaj9            

e|-------5--5-5-5/7--5--3-3-2-2h3--------5--3-3-2-3-3/5----------|
B|-------x-----------3------------3------5-----------------------|
G|-------5-----------4--------------2----4-----------------------|
D|-------4-----------5----------------4--5-----------------------|
A|-------5-------------------------------3-----------------------|
E|---------------------------------------------------------------|


         Bm7                Am             D7

e|-------2--2-2-------2-3--0--0-0--------------------------------|
B|-------3------5-3-5------1------3-1-0-----------0-1-3-5-7------|
G|-------2-----------------2------------2-0--2--2----------------|
D|-------4-----------------2-----------------4--4----------------|
A|-------2-----------------0-----------------5--5----------------|
E|---------------------------------------------------------------|


         D7                  Bm7  Dsus  Am   Am6  Bm7  Bm7* Am       

e|-------5--5-5-(5)-2-0---0---2----3----0----0h2-----------------|
B|-------x--------------3-----3----3----1----1----3----4----1----|
G|-------5--------------------2----2----2----2----2----2----2----|
D|-------4--------------------4----0----2----2----4----4----2----|
A|-------5--------------------2---------0----0----2----2----0----|
E|---------------------------------------------------------------
G            Bm     C
Änglarna har åkt på pisk
            D        G
Gårdarna är grönsvarta
         Bm      C                       D
Och i Azalea kan man inte undgå att bli kär
C              D                       G
Där går en som svär att allt du gör är gott
D     Em   D      C               D
Ja, jag är din om du vill ha en idiot
                C     D              G    D
Lägg din hand i min, lägg din hand i min

G                   Bm    C
Har ingen plats att kalla hem
        D
I detta pissiga vårregn
G               Bm                C              D
Ett förortsgäng kapar en spårvagn hem i vårkvällen
C           D          G   D
Provsmakar livets heroin
    Em    D        C         D
Och om du någonsin vill ha en idiot
                  C   D               G  D
Lägg din hand i min, lägg din hand i min

C                G                Bm
Du kanske aldrig når dit du vill nå
           C D
men du når mig
Em                 Bm             C
Du kanske aldrig får den du vill få
D       D        
men du får mig

Outro:
|G   |Bm  |C   |D   |
|G   |Bm  |C   |D   |
|C   |G   |Bm  |C D |
|Em  |Bm  |C   |D   |D   |

|Em  |Bm  |C   |D  |
|Em  |Bm  |C   |D  | 
|Em  |Bm  |C   |D  |

            
            
Suggest correction
Creating personal tab
Creating personal tab
You can edit any tab online and save it as your Personal.

You can edit, replace or remove any tab part or add personal notes – all changes will be seen only by you.

Personal tabs can be accessed anytime from any device, even offline.
Learn more »
Give kudos to tab author, rate the tab!
1 2 3 4 5
comments
print report bad tab
1 comment total.
0 reply
Mats Fagergren 2,241 Dec 11, 2014 10:18 AM

Nearly perfect but some adjustments still needed. For ex the fade out and some small adjustments in the intro.

guest
You may want to rate the tab now too:
select rating
Wanna post a correction for this tab? Suggest correction