Oops, an error
Loading. Please wait.

Heroes bass

732 views 1 this week
no commentswrite comment
1 2 3 4 5
1 last vote to show rating
add to favorites
×
Save as Personal and add changes to this tab that will be seen only by you. Learn more ›
×
You can save this tab as Personal to edit and correct it or add notes. All changes will be seen only by you. Learn more »
launch autoscroll
font size
0
reset
guitar tuner
edit
Autoscroll
slow
fast
+/-
esc
set tempo
stop
Author
Difficulty
====NOTES====
Chorus only bass part.

An alternative to a five-string bass would be to:
1. tune to standard D (DGCF)
2. transpose the fingerings up 2 frets (1f on E would be 3f on new tuning), and D would be open low string.

Repeats
If the chord progression repeats (e.g. during the chorus or chorus followed by chorus):
--> use the first ending ONLY
If transitioning to another section (like the "we keep dancing with the demons" or finale):
--> use the second ending ONLY
==END NOTES==

[CHORUS]

G|---------------------------------|---------------------------------|
D|---------------------------------|---------------------------------|
A|---------------------------------|-0-------------0-0---0-----0-----|
E|-1-------------1-1---1-----3-----|---------------------------------|
B|---------------------------------|---------------------------------|
   1 e + a 2 e + a 3 e + a 4 e + a   1 e + a 2 e + a 3 e + a 4 e + a
_____________________________________________________________________
1.*                                                                  |
G|---------------------------------|---------------------------------||
D|---------------------------------|-------------------------------o-||
A|---------------------------------|---------------------------------||
E|-3-------------3-3---3-----3-----|---------------------------0---o-||
B|---------------------------------|-3-------------3-3---3-----------||
   1 e + a 2 e + a 3 e + a 4 e + a   1 e + a 2 e + a 3 e + a 4 e + a

   _____________________________________________________________________
  |2.
G||-----------------------------------|---------------------------------|
D||-o---------------------------------|---------------------------------|
A||-----------------------------------|---------------------------------|
E||-o-3-------------3-3---3-----3-----|---------------------------------|
B||-----------------------------------|-3-------------3-3---3-----3-----|
      1 e + a 2 e + a 3 e + a 4 e + a   1 e + a 2 e + a 3 e + a 4 e + a


"We keep dancing with the demons"
G|---------------------------------|---------------------------------|
D|---------------------------------|---------------------------------|
A|---------------------------------|-0-------------0-0---0-----0-----|
E|-1-------------1-1---1-----3-----|---------------------------------|
B|---------------------------------|---------------------------------|
   1 e + a 2 e + a 3 e + a 4 e + a   1 e + a 2 e + a 3 e + a 4 e + a

G|---------------------------------|---------------------------------|
D|---------------------------------|---------------------------------|
A|---------------------------------|---------------------------------|
E|-3-------------3-3---3-----3-----|---------------------------0-----|
B|---------------------------------|-3-------------3-3---3-----------|
   1 e + a 2 e + a 3 e + a 4 e + a   1 e + a 2 e + a 3 e + a 4 e + a


[FINALE]

G|-----------------------------------|
D|-----------------------------------|
A|-----------------------------------|
E|-----------------------------------|
B|-3\--------------------------------|


-----
[MINI-KEY]
| \  slide down

            
            
Suggest correction
Creating personal tab
Creating personal tab
You can edit any tab online and save it as your Personal.

You can edit, replace or remove any tab part or add personal notes – all changes will be seen only by you.

Personal tabs can be accessed anytime from any device, even offline.
Learn more »
Give kudos to tab author, rate the tab!
1 2 3 4 5
comments
print report bad tab
guest
You may want to rate the tab now too:
select rating
Wanna post a correction for this tab? Suggest correction