Oops, an error
Loading. Please wait.

Wasted Acoustic tab

by Tiësto
578 views 1 this week
no commentswrite comment
1 2 3 4 5
3 more votes to show rating
add to favorites
×
Save as Personal and add changes to this tab that will be seen only by you. Learn more ›
×
You can save this tab as Personal to edit and correct it or add notes. All changes will be seen only by you. Learn more »
launch autoscroll
font size
0
reset
how to read this tab
guitar tuner
edit
Autoscroll
slow
fast
+/-
esc
set tempo
stop
Author
Difficulty
Tuning: Standard

This is my version if some acoustic parts of "Wasted". I made the tab off of the acoustic

video on youtube https://www.youtube.com/watch?v=deJjyIaBBTM

Plays this during the chorus
e|---------------------------------------------------------------------------|
B|---------------10-7--------------------10-7--------------------------------|
G|-7-x-x-7-x-x-7------9-7--7-x-x-7-x-x-7------9-7----------------------------|
D|---------------------------------------------------------------------------|
A|---------------------------------------------------------------------------|
E|---------------------------------------------------------------------------|

e|---------------------------------------------------------------------------|
B|---------------------------------------------------------------------------|
G|--9-9/11-9-7-7/11-9-7-4-4/2-0-2-2/11---------------------------------------|
D|---------------------------------------------------------------------------|
A|---------------------------------------------------------------------------|
E|---------------------------------------------------------------------------|

                            G
I like us better when we're wasted
                      D
It makes it easier to fake it
                        A
The only time we really talk
               Em                G
Is when our clothes are coming off
                            G
I like us better when we're wasted
                     D
It makes it easier to say it
                            A
Lay all your laundry on the bed
                          Em
And then I'll lay in it instead
                            D
I like us better when we're wasted

D 
Oh oh oh oh

e|---------------------------------------------------------------------------|
B|---------------10-7--------------------10-7--------------------------------|
G|-7-x-x-7-x-x-7------9-7--7-x-x-7-x-x-7------9-7----------------------------|
D|---------------------------------------------------------------------------|
A|---------------------------------------------------------------------------|
E|---------------------------------------------------------------------------|

G G D D A7 G D D

G
You are a glass half empty

Sipping my ocean dry
D
Emotionally spent me
                              A
Til none of our planets could align
   G                  D
But I could stand you one more night

D D D D (chord once)

G
I like us better when we're wasted
                     D
It makes it easier to say it
                            A
Lay all your laundry on the bed
                        Em
And then I'll lay in it instead
                           D
I like us better when we're wasted

D 
Oh oh oh oh

e|---------------------------------------------------------------------------|
B|---------------10-7--------------------10-7--------------------------------|
G|-7-x-x-7-x-x-7------9-7--7-x-x-7-x-x-7------9-7----------------------------|
D|---------------------------------------------------------------------------|
A|---------------------------------------------------------------------------|
E|---------------------------------------------------------------------------|

G
You are a catch 22

Either way I miss out
D
All of the grief I'd give you
                    A
Is energy I can live without
    G                 D
But I could stand you one more night


G
I like us better when we're wasted
D
It makes it easier to say it
                            A
Lay all your laundry on the bed
                        Em
And then I'll lay in it instead
                            D
I like us better when we're wasted

D
Oh oh oh oh

G G D D A
G D D D D 


G
I like us better when we're wasted
D
It makes it easier to say it
                           A
Lay all your laundry on the bed
                        Em
And then I'll lay in it instead
                                D
I like us better when we're wasted
D
Oh oh oh oh

G G D D A Em D D D

************************************

| /   slide up
| \   slide down
| h   hammer-on
| p   pull-off
| ~   vibrato
| +   harmonic
| x   Mute note
| b   Bend
| pb  Pre-bend
| br  Bend release
| pbr Pre-bend release
| brb Bend release bend

************************************

            
            
Suggest correction
Creating personal tab
Creating personal tab
You can edit any tab online and save it as your Personal.

You can edit, replace or remove any tab part or add personal notes – all changes will be seen only by you.

Personal tabs can be accessed anytime from any device, even offline.
Learn more »
Give kudos to tab author, rate the tab!
1 2 3 4 5
comments
print report bad tab
guest
You may want to rate the tab now too:
select rating
Wanna post a correction for this tab? Suggest correction