Oops, an error
Loading. Please wait.

Ramlar bass

269 views 1 this week
no commentswrite comment
1 2 3 4 5
3 more votes to show rating
add to favorites
×
Save as Personal and add changes to this tab that will be seen only by you. Learn more ›
×
You can save this tab as Personal to edit and correct it or add notes. All changes will be seen only by you. Learn more »
launch autoscroll
font size
0
reset
guitar tuner
edit
Autoscroll
slow
fast
+/-
esc
set tempo
stop
Author
Difficulty
-------------------------------------------------------------------------------
                             Ramalar - Håkan Hellström
-------------------------------------------------------------------------------
Tabbed by: Dannegl 

Tuning:EADG


Riff
G|------------------------------------------------| 
D|-------------2--2--2--2--3--3--3--3--5--5-7-7-5-| 
A|-3--3--3--3-------------------------------------| 
E|------------------------------------------------| x2 

Vers 
G|------------------------------------------------| 
D|-------------2--2--2--2--3--3--3--3--5--5-7-7-5-| 
A|-3--3--3--3-------------------------------------| 
E|------------------------------------------------| x4 

Refräng 
G|------------------------------------------------| 
D|-------------2--2--2--2--3--3--3--3--5--5-7-7-5-| 
A|-3--3--3--3-------------------------------------| 
E|------------------------------------------------|  

G|------------------------------------------------| 
D|-------------2--2--2--2--3--3--3--3--5--5--5--5-| 
A|-3--3--3--3-------------------------------------| 
E|------------------------------------------------|  

G|---------------------------------------5\10-10-10-10-10-10-10-10-10-| 
D|-3--3-5--5-5--3--3-5--5-5--3--3-5--5-5------------------------------| 
A|--------------------------------------------------------------------| 
E|--------------------------------------------------------------------| 

G|--------------------------------------------------------| 
D|-3--3-5--5-5--3--3-5--5-5--3--3-5--5-5--5-5-5-5-5-5-5-5-| 
A|--------------------------------------------------------|  
E|--------------------------------------------------------|

Riff x2  

Vers x4  

Refräng 

Riff x2   

Vers x6   

Refräng 


| /  slide up
| \  slide down
| h  hammer-on
| p  pull-off
| ~  vibrato
| +  harmonic
| x  Mute note
===============================================================================

            
            
Suggest correction
Creating personal tab
Creating personal tab
You can edit any tab online and save it as your Personal.

You can edit, replace or remove any tab part or add personal notes – all changes will be seen only by you.

Personal tabs can be accessed anytime from any device, even offline.
Learn more »
Give kudos to tab author, rate the tab!
1 2 3 4 5
comments
print report bad tab
guest
You may want to rate the tab now too:
select rating
Wanna post a correction for this tab? Suggest correction