Oops, an error
Loading. Please wait.

Ansiedad chords

version 1
version 1

Whole song

67 views 1 this week
no commentswrite comment
1 2 3 4 5
3 more votes to show rating
add to favorites
×
Save as Personal and add changes to this tab that will be seen only by you. Learn more ›
×
You can save this tab as Personal to edit and correct it or add notes. All changes will be seen only by you. Learn more »
launch autoscroll
font size
0
reset
transpose
0
reset
simplify chords
display chords
guitar tuner
edit
Autoscroll
slow
fast
+/-
esc
set tempo
stop
Author
Difficulty
Strumming
There is no strumming pattern for this song yet. and get +5 IQ
(5)4  (4)2  *

Rasgueo:  p   ami  ami      ami  ps  ami
          ↓    ↑    ↓        ↑    ↓   ↑
          1         2             3

intro:

e|-9-12-12-12-12-10-12-10-12-10-12-10-12-9-12-9------------------------------|
B|---------------------------------------------------------------------------|
G|---------------------------------------------------------------------------|

e|-9-12-12-12-12-10-12-10-12-10-12-10-12-9-12-9------------------------------|
B|---------------------------------------------------------------------------|
G|---------------------------------------------------------------------------|

e|----9-9-9-9----9----9----9----9--------------------------------------------|
B|-10---------12---12---12---12---10-----------------------------------------|
G|---------------------------------------------------------------------------|

e|-9-9-9-9-9----9----9----9----9--------9---14-------------------------------|
B|-----------12---12---12---12-------10--------------------------------------|
G|--------------------------------11-----------------------------------------|



      A 
Ansiedad de tenerte en mis brazos 

                       E7
musitando palabras de amor
      
Ansiedad de tener tus encantos 

         D      Dm         A
y en la boca volverte a besar


      A 
Ansiedad de tenerte en mis brazos 

                       E7
musitando palabras de amor
      
Ansiedad de tener tus encantos 

         D      Dm         A
y en la boca volverte a besar


              C#7            F#m                
Quizás esté llorando mi pensamiento 

            C#7                     F#m                
mis lágrimas son perlas que caen al mar

                D               A     
y el eco adormecido de este lamento

                 E7               A
hace que estés presente en mi soñar


               C#7            F#m                
Quizas estes llorando al recordarme 

                 C#7            F#m                
y estreches mi retrato con frenesí

                   D    
y hasta tu oído llegue 

E7                 A
  la melodía salvaje

               E7                A
y el eco de la pena de estar sin ti


Inter: E A (x2)  C#7 F#m (x2)


* Notas exactas para comenzar a cantar.  El numero en parentesis es la cuerda y los otros los trastes.

            
            
Suggest correction
Creating personal tab
Creating personal tab
You can edit any tab online and save it as your Personal.

You can edit, replace or remove any tab part or add personal notes – all changes will be seen only by you.

Personal tabs can be accessed anytime from any device, even offline.
Learn more »
Give kudos to tab author, rate the tab!
1 2 3 4 5
comments
print report bad tab
guest
You may want to rate the tab now too:
select rating
Wanna post a correction for this tab? Suggest correction