Oops, an error
Loading. Please wait.

Rains Of Castamere tab

version 2
version 2

Whole song

1,069 views 9 this week
no commentswrite comment
1 2 3 4 5
x 3
add to favorites
×
Save as Personal and add changes to this tab that will be seen only by you. Learn more ›
×
You can save this tab as Personal to edit and correct it or add notes. All changes will be seen only by you. Learn more »
launch autoscroll
font size
0
reset
how to read this tab
guitar tuner
edit
Autoscroll
slow
fast
+/-
esc
set tempo
stop
Difficulty
And Who are you the proud lord said that I must bow so low

E--3-2-3-5-2-5-3-2-0-2-|
B-0-0-0-----0----------|
G----------------------|
D----------------------|
A----------------------|
E----------------------|

Only a cat of a different coat, that's all the truth I know.

E--7-5--7-8-5---8-7-5-3-0-|
B-0-0--0-------0----------|
G-------------------------|
D-------------------------|
A-------------------------|
E-------------------------|

In a coat of gold or a coat of red,a lion still has claws,

E--3-2-3-5-2-5-3-2-0-2-|
B-0-0-0-----0----------|
G----------------------|
D----------------------|
A----------------------|
E----------------------|


And mine are long and sharp, my Lord, as long and sharp as yours.

E--7-5--7-8-5---8-7-5-3-0-|
B-0-0--0-------0----------|
G-------------------------|
D-------------------------|
A-------------------------|
E-------------------------|

And so he spoke, and so he spoke

E---2-3-0-----3--2-3--|
B-0-----------------3-|
G---------------------|
D---------------------|
A---------------------|
E---------------------|

that lord of Castamere,

E-2-3-0-3-3\2-|
B-------------|
G-------------|
D-------------|
A-------------|
E-------------|

But now the rains weep o'er his hall,
with no one there to hear.

E-2-3-0---7-7-5-------------------|
B---------------7--7-8--10-7--3-5-|
G---------------------------------|
D---------------------------------|
A---------------------------------|
E---------------------------------|


Yes, now the rains weep o'er his hall,
and not a soul to hear.

E-0--2-3-0---7-7-5------------------|
B-----------------7--7-8--10-7--3-5-|
G-----------------------------------|
D-----------------------------------|
A-----------------------------------|
E-----------------------------------|

            
            
Suggest correction
Creating personal tab
Creating personal tab
You can edit any tab online and save it as your Personal.

You can edit, replace or remove any tab part or add personal notes – all changes will be seen only by you.

Personal tabs can be accessed anytime from any device, even offline.
Learn more »
Give kudos to tab author, rate the tab!
1 2 3 4 5
comments
print report bad tab
guest
Wanna post a correction for this tab? Suggest correction