Oops, an error
Loading. Please wait.

A Real Mother For Ya bass

version 1
version 1

Whole song

Interactive

1,518 views 6 this week
no commentswrite comment
1 2 3 4 5
1 last vote to show rating
add to favorites
×
Save as Personal and add changes to this tab that will be seen only by you. Learn more ›
×
You can save this tab as Personal to edit and correct it or add notes. All changes will be seen only by you. Learn more »
launch autoscroll
font size
0
reset
guitar tuner
edit
Autoscroll
slow
fast
+/-
esc
set tempo
stop
Author
Difficulty
-------------------------------------------------------------------------------
                             A Real Mother For Ya - Johnny Guitar Watson
-------------------------------------------------------------------------------
Tabbed by: Yodathemaster
E-mail: blijfmaarsturen@gmail.com

Tuning:EADG

This is a bass tab for the song A Real Mother For Ya by Johnny Guitar Watson.
I did not create it, I looked at a bass cover on YouTube and made the tab.
Feel free to edit if there are any mistakes.

Here is the youtube link:
https://www.youtube.com/watch?v=8E6ZvD6sHvo
This guy is amazing and has a lot of other bass covers.

Anyway here is the tab.


Intro/Verse
 
G|--------------------|
D|--------------------|
A|-------1-----------1|
E|1-1-1-4--4--1-1-1-4-| 

Chorus

G|-----------------------------------------------------------------------------------------|
D|-----------------------------------------------------------------------------------------|
A|-----------8-10-8-13-13-13-10-----------------------8-8-8------8-6-----3-4-5-6-8-6-------|
E|7-6--10-10-------------------13-11-13-13-13-\5-6-7-8-----7-6-6----6-5-4-----------8-6-4-1|

Bridge

Bridge is just an F. First the low F and then the octave

G|------------------------------------|
D|------------------------------------|
A|---------------------8-8-8-8-8-8-8-8|
E|1-1-1-1-1-1-1-1---------------------|


| \  slide down
| /  slide up
Suggest correction
Creating personal tab
Creating personal tab
You can edit any tab online and save it as your Personal.

You can edit, replace or remove any tab part or add personal notes – all changes will be seen only by you.

Personal tabs can be accessed anytime from any device, even offline.
Learn more »
Give kudos to tab author, rate the tab!
1 2 3 4 5
comments
print report bad tab
guest
You may want to rate the tab now too:
select rating
Wanna post a correction for this tab? Suggest correction