Oops, an error
Loading. Please wait.

Sun Is Shining tab

4,112 views 15 this week
1 commentread comment
1 2 3 4 5
x 3
add to favorites
×
Save as Personal and add changes to this tab that will be seen only by you. Learn more ›
×
You can save this tab as Personal to edit and correct it or add notes. All changes will be seen only by you. Learn more »
launch autoscroll
font size
0
reset
how to read this tab
guitar tuner
edit
Autoscroll
slow
fast
+/-
esc
set tempo
stop
Author
Difficulty
                       SUN IS SHINING - AXWELL & INGROSSO

                           Transcribed by Jens Haglöf
Tempo: 130 BPM

Right hand technique on the intro and verse: I use my thumb on the thick E string 
and my index and middle finger on the other two strings. Good luck playing it!

Video of me teaching and playing it: https://www.youtube.com/watch?v=bisdZgEMbVw

INTRO:

     B5 
E||--------------------------------------|--------------------------------------|
B||--------------------------------------|--------------------------------------|
G||--------------------------------------|--------------------------------------|
D||-----9--------9--------9--------9-----|-----9--------9--------9--------9-----|
A||--------9--------9--------9--------9--|--------9--------9--------9--------9--|
E||--7--------7--------7--------7--------|--7--------7--------7--------7--------|


VERSE:

    B5                                         E/B
||------------------------------------------|--------------------------------------|
||------------------------------------------|--------------------------------------|
||*----11--------11--------11--------11-----|-----9--------9--------9--------9-----|
||*--------9---------9---------9---------9--|--------6--------6--------6--------6--|
||------------------------------------------|--------------------------------------|
||--7---------7---------7---------7---------|--7--------7--------7--------7--------|


  Bm                                     A7sus4            A
--------------------------------------|--------------------------------------|
--------------------------------------|--------------------------------------|
-----7--------7--------7--------7-----|-----7--------7--------6--------6-----|
--------------------------------------|--------5--------5--------------------|
--------9--------9--------9--------9--|--------------------------7--------7--|
--7--------7--------7--------7--------|--5--------5--------5--------5--------|


  Gmaj#11           G                    F#m               A
--------------------------------------|--------------------------------------|
--------------------------------------|--------------------------------------|
-----6--------6--------4--------4-----|-----2--------2--------6--------6-----|
--------4--------4--------------------|--------------------------------------|
--------------------------5--------5--|--------4--------4--------7--------7--|
--3--------3--------3--------3--------|--2--------2--------5--------5--------|


  B5
--------------------------------------|---------------------------------------||
--------------------------------------|---------------------------------------||
--------------------------------------|-------------------------------------*-||
-----9--------9--------9--------9-----|-----9--------9--------9--------9----*-||
--------9--------9--------9--------9--|--------9--------9--------9--------9---||
--7--------7--------7--------7--------|--7--------7--------7--------7---------||


CHORUS:    

     Em                  D        A           D                   D/F#     G
||---0----------------|--2--------0--------|--2----------------|--x--------3--------||
||---0----------------|--3--------2--------|--3----------------|--3--------3--------||
||-*-0----------------|--2--------2--------|--2----------------|--2--------0------*-||
||-*-2----------------|--0--------2--------|--0----------------|--0--------0------*-||
||---2----------------|--0--------0--------|--0----------------|--0--------2--------||
||---0----------------|--------------------|-------------------|--2--------3--------||


MELODY: (played over the Chorus chords)
||--3----3----3-------3--3-------|--2-----------------|------------2------------------|
||-------------------------------|-----------5--------|--3----5------------5--3-------|
||-------------------------------|--------------------|-------------------------------|
||-------------------------------|--------------------|-------------------------------|
||-------------------------------|--------------------|-------------------------------|
||-------------------------------|--------------------|-------------------------------|


---------------------||--3----3----3-------3--3-------|--5----2-------------|
---------------------||-------------------------------|------------5--------|
--2----4----4--------||-------------------------------|---------------------|
---------------------||-------------------------------|---------------------|
---------------------||-------------------------------|---------------------|
---------------------||-------------------------------|---------------------|


------------2------------------|---------------------||
--3----5------------5--3-------|---------------------||
-------------------------------|--2----4----4--------||
-------------------------------|---------------------||
-------------------------------|---------------------||
-------------------------------|---------------------||


HOW TO PLAY:

INTRO

VERSE
A simple band of gold
Wrapped around my soul
Hard forgiving, hard forget

Faith is in our hands
Castles made of sand
No more guessing, no regrets


CHORUS
Then you came my way on a winter's day
Shouted loudly come out and play
Can't you tell I got news for you
Sun is shining and so are you

And we're gonna be alright
Dry your tears and hold tight
Can't you tell I got news for you
Sun is shining and so are you

MELODY

CHORUS (w/melody)
And we're gonna be alright
Dry your tears and hold tight
Can't you tell I got news for you
Sun is shining and so are you

INTRO

VERSE 2
Diamonds to behold, waiting to unfold
Bite the bullet, bite your tongue

Love beyond belief
Raid the seven seas
Come uneven, come undone

CHORUS
Then you came my way on a winter's day
Shouted loudly come out and play
Can't you tell I got news for you
Sun is shining and so are you

And we're gonna be alright
Dry your tears and hold tight
Can't you tell I got news for you
Sun is shining and so are you

Sun is shining and so are you x6
Can't you tell I got news for you
Sun is shining and so are you

MELODY

CHORUS (w/melody)
And we're gonna be alright
Dry your tears and hold tight
Can't you tell I got news for you
Sun is shining and so are you

CHORUS (no melody)
Sun is shining and so are you x8

            
            
Suggest correction
Creating personal tab
Creating personal tab
You can edit any tab online and save it as your Personal.

You can edit, replace or remove any tab part or add personal notes – all changes will be seen only by you.

Personal tabs can be accessed anytime from any device, even offline.
Learn more »
Give kudos to tab author, rate the tab!
1 2 3 4 5
comments
print report bad tab
1 comment total.
0 reply
flyingvbiker 43 Aug 27, 2015 10:45 AM

Well done!

guest
You may want to rate the tab now too:
select rating
Wanna post a correction for this tab? Suggest correction