Oops, an error
Loading. Please wait.

Sitkeä Sydän intro tab

version 1
version 1

Intro

1,570 views 6 this week
1 commentread comment
1 2 3 4 5
x 3
add to favorites
×
Save as Personal and add changes to this tab that will be seen only by you. Learn more ›
×
You can save this tab as Personal to edit and correct it or add notes. All changes will be seen only by you. Learn more »
launch autoscroll
font size
0
reset
how to read this tab
guitar tuner
edit
Autoscroll
slow
fast
+/-
esc
set tempo
stop
Author
Difficulty
E|----------------------------------------------------------------------------|
B|----------------------------------------------------------------------------|
G|-10\8-----------------------------------------------------------------------|
D|--------10---8---8---8---10---8---6---8/10----------------------------------|
A|----------------------------------------------------------------------------|
E|----------------------------------------------------------------------------|



E|----------------------------------------------------------------------------|
B|----------------------------------------------------------------------------|
G|-13---12---10\8-------------------------------------------------------------|
D|------------------10---10/11\10---8---10------------------------------------|
A|----------------------------------------------------------------------------|
E|----------------------------------------------------------------------------|



E|----------------------------------------------------------------------------|
B|----------------------------------------------------------------------------|
G|-10\8----------------------------------------------------------------5P4H10-|
D|--------10---8---8---8----10---8---6---8---8---10---8---1---1/3-------------|
A|----------------------------------------------------------------------------|
E|----------------------------------------------------------------------------|



For the absolutely last part (5P4H10), use the index finger which you usually play on the strings with.
An example of this: https://www.youtube.com/watch?v=nJKqYb1o9Kw

H: Hammer-on
P: Pull-off
\: Slide
/: Slide



Moi, oikeesti, lopeta nyt, tuli... (That's all the words I know, sorry)

            
            
Suggest correction
Creating personal tab
Creating personal tab
You can edit any tab online and save it as your Personal.

You can edit, replace or remove any tab part or add personal notes – all changes will be seen only by you.

Personal tabs can be accessed anytime from any device, even offline.
Learn more »
Give kudos to tab author, rate the tab!
1 2 3 4 5
comments
print report bad tab
1 comment total.
0 reply
bigbeanzzz 10 Aug 23, 2017 07:35 AM

amazing

guest
You may want to rate the tab now too:
select rating
Wanna post a correction for this tab? Suggest correction