Oops, an error
Loading. Please wait.

Herz Über Kopf Acoustic chords

version 9
version 9

Whole song

Interactive

by Joris
2,564 views 12 this week
no commentswrite comment
1 2 3 4 5
1 last vote to show rating
add to favorites
×
Save as Personal and add changes to this tab that will be seen only by you. Learn more ›
×
You can save this tab as Personal to edit and correct it or add notes. All changes will be seen only by you. Learn more »
launch autoscroll
font size
0
reset
transpose
0
reset
display chords
guitar tuner
edit
Autoscroll
slow
fast
+/-
esc
set tempo
stop
Strumming
There is no strumming pattern for this song yet. and get +5 IQ
Hi. This is my 1st guitar tab and I think it's correct but I don't know if it is 100 percent correct. I don't 
actually speak German, I am using Google Translate but I'm open to feedback from anyone. Thank you and enjoy.

Capo: 4th fret 
Capo 4. Bund

[Intro]
e|-----------------------------|-0------1------0---------------|
B|-1------1-----1-------3------|---1------1------1-----3-------|
G|---2------2-----2-------4----|-------------------------0-----|
D|-----------------------------|-------------------------------|
A|-0---0------0-----0---2---2--|-3---3------3-------3------3---|
E|-----------------------------|-------------------------------| x2

[Verse 1]
 F 
      Hast mich lang nicht mehr so angesehen
E Em F
      hab viel zu oft versucht uns zu verstehn'
E Em F                                              C Em Am
      die Augen treffen sich, der Wein ist schon halb leer
E Em F
      Oh, ich weiß ganz genau was du grad denkst
E Em F
      der Zug ist abgefahrn' die Zeit verschenkt
E Em F                                       C Em (Am)
      fühlt sich so richtig an, doch ist so falsch

[Chorus]
      Am                 F
      und immer wenn es Zeit wird zu gehn
      C                   E
      vergess ich was mal war und bleibe stehn
      Am                F
      das Herz sagt bleib
                       C  F C
      der Kopf schreit geh
                   Am F C E
      Herz über Kopf
                   Am F C E
      Herz über Kopf

[Verse 2]
     F
      trägst deine Haare immer noch wie früher
E Em F
      und du tanzt genau wie früher
E Em F                                     C Em (Am)
      die Augen treffen sich der Raum ist schon halb leer
E Em F
      haben uns so oft gesagt es geht nicht mehr
E Em F
      das war am Anfang schwer, doch jetzt viel mehr
E Em F                                      Am
      Musik ist aus und du kommst immer näher

[Chorus]
      Am                 F
      und immer wenn es Zeit wird zu gehn
      C                   E
      vergess ich was mal war und bleibe stehn
      Am                F
      das Herz sagt bleib
                       C  F C
      der Kopf schreit geh
                   Am 
      Herz über Kopf
              
       Am                 F
      und immer wenn es Zeit wird zu gehn
      C                   E
      vergess ich was mal war und bleibe stehn
      Am                F
      das Herz sagt bleib
                       C  F C
      der Kopf schreit geh
   
[Bridge]
                  Am  F  C
      Herz über Kopf
                  Am  F  C
      Herz über Kopf
                    F                      G          C
      Herz über Kopf, lass ich dich immer noch nicht gehn
                    C      G        F
      lass ich dich immer noch nicht gehn
      Am                  F                C  E  Am  F
      auch wenn es längst Zeit wär zu gehn
 C F C     
      Herz über Kopf

[Chorus]
      Am                 F
      und immer wenn es Zeit wird zu gehn
      C                   E
      vergess ich was mal war und bleibe stehn
      Am                F
      das Herz sagt bleib
                       C  F C
      der Kopf schreit geh
                   Am F C E
      Herz über Kopf
                  
      Am                 F
      und immer wenn es Zeit wird zu gehn
      C                   E
      vergess ich was mal war und bleibe stehn
      Am                F
      das Herz sagt bleib
                       C  F C
      der Kopf schreit geh
                   Am F C E
      Herz über Kopf
  
If you want to play the chorus exactly like in the song instead of just chords you could play it like this
    Am                  F                    C                    E
e|--0--------0----------1---------1-----------0--------0----------0--------0----------|
B|-----1--------1----------1---------1-----------1--------1----------0--------0-------|
G|------------------------------------------------------------------------------------|
D|------------------------------------------------------------------------------------|
A|--0----0---------0--------------------------3-----3---------3-----------------------|
E|----------------------1-----1--------1--------------------------0-----0--------0----|

  Am                  F                    C           F          C        E
e|--0--------0----------1---------1-----------0--------1----------0--------0----------|
B|-----1--------1----------1---------1-----------1--------1----------1--------0-------|
G|------------------------------------------------------------------------------------|
D|------------------------------------------------------------------------------------|
A|--0----0---------0-------------------------3-----3--------------3------3------------|
E|----------------------1------1--------1--------------1-----1-------------0-----0----|

Thank you and Enjoy!
Danke und genießen!
Suggest correction
Creating personal tab
Creating personal tab
You can edit any tab online and save it as your Personal.

You can edit, replace or remove any tab part or add personal notes – all changes will be seen only by you.

Personal tabs can be accessed anytime from any device, even offline.
Learn more »
Give kudos to tab author, rate the tab!
1 2 3 4 5
comments
print report bad tab
guest
You may want to rate the tab now too:
select rating
Wanna post a correction for this tab? Suggest correction