Oops, an error
Loading. Please wait.

Streets Bloom tab

by Céu
80 views 1 this week
no commentswrite comment
1 2 3 4 5
2 more votes to show rating
add to favorites
×
Save as Personal and add changes to this tab that will be seen only by you. Learn more ›
×
You can save this tab as Personal to edit and correct it or add notes. All changes will be seen only by you. Learn more »
launch autoscroll
font size
0
reset
how to read this tab
guitar tuner
edit
Autoscroll
slow
fast
+/-
esc
set tempo
stop
Ceu - Streets Bloom

As performed here:
Céu [MTV Na Brasa] - Streets Bloom [08/12/2012]
- Maria do Céu Whitaker Poças -
https://www.youtube.com/watch?v=rH6rYHRroH4
Tabbed by @athanlive


Intro (only Bass):
Gm – F – Cm – Cm x2

Intro (guitar riff):
Gm      F      C   C      Gm          F            C   C
--3----------3-----------------3-------------------------|
----3------4---5---4---6-4-3-----3-----------------------|
------3-5--------------------------3--5~~--2^3^2---0~~---|
---------------------------------------------------------|
---------------------------------------------------------|
---------------------------------------------------------|

Verse:
Gm           F
 When I was walking in town
Dm                   Dm
 This morning after months, on the road
Gm                F
 I thought I'm the memories
Dm              Dm
 All I have seen and what I've done
Gm             F
 This cold just break my bones
Dm               Dm
 Why the sun is not strong enough?
Gm                   F
 But the noise in my neighborhood
D                     D
 Brought back the heat Brought back the will

Break:
Gm - F - C                 C
           Telling to my friends
              Gm            F
Where I went and with whom I
C                 C
  Telling to my friends

Bridge:
            Gm   F
Where I've been
     Cm               Bb
My steps on the dancefloor
          Eb   D              Gm
Lit the lights   of the nightclub
     F              Cm
The venue where I played
              Eb   D            Gm
Was made of brick,  from forest plants
     F                  Cm              Eb   D
And vans don't need no fuel to move through
             Gm
The streets bloom

Chorus:
        Eb             C     C    (D)
When I die, I'll be not aware, of who I am
Gm             Eb         C
 But I'm more alive, than ever
    (D)        Gm
To trace my way
        Eb             C     C    (D)
When I die, I'll be not aware, of who I am
Gm             Eb         C
 But I'm more alive, than ever
    (D)
To trace my way

Break:
Gm      F      C   Eb      Gm         F            C  C
--3----------3-----------------3-------------------------|
----3------4---5---4---6-4-3-----3-----------------------|
------3-5--------------------------3--5~~--2^3^2---0~~---|
---------------------------------------------------------|
---------------------------------------------------------|
---------------------------------------------------------|


Verse:
Gm           F
 When I was walking in town
Dm                   Dm
 This morning after months, on the road
Gm                F
 I thought I'm the memories
Dm              Dm
 All I have seen and what I've done
Gm             F
 This cold just break my bones
Dm               Dm
 Why the sun is not strong enough?
Gm                   F
 But the noise in my neighborhood
D                     D
 Brought back the heat Brought back the will


Break:
Gm        F        C
-------------------0----|
-------------------1----|
--------3-2-----2--0----|
------5-----3------2----|
----5---------3----3----|
--3---------------------|

                C
Telling to my friends
              Gm            F
Where I went and with whom I


Break:
Gm        F        C
-------------------0----|
-------------------1----|
--------3-2-----2--0----|
------5-----3------2----|
----5---------3----3----|
--3---------------------|

                  C
  Telling to my friends


Bridge:
            Gm   F
Where I've been
     Cm               Bb
My steps on the dancefloor
          Eb   D              Gm
Lit the lights   of the nightclub
     F              Cm
The venue where I played
              Eb   D            Gm
Was made of brick,  from forest plants
     F                  Cm              Eb   D
And vans don't need no fuel to move through
             Gm
The streets bloom


Chorus:
        Eb             C     C    (D)
When I die, I'll be not aware, of who I am
Gm             Eb         C
 But I'm more alive, than ever
    (D)        Gm
To trace my way
        Eb             C     C    (D)
When I die, I'll be not aware, of who I am
Gm             Eb         C
 But I'm more alive, than ever
    (D)
To trace my way

Outro:
Gm  Eb C  C     (D)
            To trace my way
Gm  Eb C  C     (D)
            To trace my way
Gm  Eb C  C     (D)
            To trace my way
Gm  Eb C  C     (D)


Gm      Eb    C C (D) Gm      F       C  C (D)       end: Gm
--3---------3-----------3-----------------------         --3----|
----3-----4---5-----------3---------------------         ---3---|
------3-5-------------------3-5--2^3^2----------  x2     ----3--|
---------------------------------------5--------         -------|
------------------------------------------------         -------|
------------------------------------------------         -------|

            
            
Suggest correction
Creating personal tab
Creating personal tab
You can edit any tab online and save it as your Personal.

You can edit, replace or remove any tab part or add personal notes – all changes will be seen only by you.

Personal tabs can be accessed anytime from any device, even offline.
Learn more »
Give kudos to tab author, rate the tab!
1 2 3 4 5
comments
print report bad tab
guest
You may want to rate the tab now too:
select rating
Wanna post a correction for this tab? Suggest correction