Oops, an error
Loading. Please wait.

S De Jéssica tab

169 views 1 this week
2 commentsread comments
1 2 3 4 5
3 more votes to show rating
add to favorites
×
Save as Personal and add changes to this tab that will be seen only by you. Learn more ›
×
You can save this tab as Personal to edit and correct it or add notes. All changes will be seen only by you. Learn more »
launch autoscroll
font size
0
reset
how to read this tab
guitar tuner
edit
Autoscroll
slow
fast
+/-
esc
set tempo
stop
Author
Difficulty
Guitarra do André Henriques:

Intro/Main Riff  (x8)
e|---------------------------------------|
B|---------------------------------------|
G|---------------------------------------|
D|-----------5--4------------------------|
A|-----5--7--------5--------5------------|
E|--7-----------------7--7---------------|

Riff 2.1                                  Riff 2.2
e|---------------------------------------|------------------------|
B|---------------------------------------|------------------------|
G|---------------------------------------|------------------------|
D|-----------------0---------------------|---0---4-----4--------5-|
A|--3--5--3--5------------3--5--3--5-----|----------5-----5-------|
E|--------------7---------------------7--|-------------------7----|

Main Riff  (x4)
e|---------------------------------------|
B|---------------------------------------|
G|--------------4------------------------|
D|-----------5-----5---------------------|
A|-----5--7-----------------5------------|
E|--7-----------------7--7---------------|

Riff 2.1                                  Riff 2.2
e|---------------------------------------|------------------------|
B|---------------------------------------|------------------------|
G|---------------------------------------|------------------------|
D|-----------------0---------------------|---0---4-----4--------5-|
A|--3--5--3--5------------3--5--3--5-----|----------5-----5-------|
E|--------------7---------------------7--|-------------------7----|

Riff 3.1  (x3)                         Riff 3.2 (x1)
e|-----------------------------------|-----------------------------------|
B|-----------------------------------|-----------------------------------|
G|-----------------------5--4--9--5--|-----------------------5--4--------|
D|--5--9--7--9--5--9-----------------|--5--9--7--9--5--9-----------5-----|
A|--------------------7--------------|--------------------7--------------|
E|-----------------------------------|--------------------------------7--|

Riff 3.1                              Riff 3.2 (x2)                       
e|-----------------------------------|-----------------------------------|
B|-----------------------------------|-----------------------------------|
G|-----------------------5--4--9--5--|-----------------------5--4--------|
D|--5--9--7--9--5--9-----------------|--5--9--7--9--5--9-----------5-----| 
A|--------------------7--------------|--------------------7--------------|
E|-----------------------------------|--------------------------------7--|

Main Riff (x4)
e|------------------------------------------|
B|------------------------------------------|
G|--------------4---------------------------|
D|-----------5-----5------------------------|
A|-----5--7-----------------5---------------|
E|--7-----------------7--7------------------|

Riff 2.1
e|------------------------------------------|
B|------------------------------------------|
G|------------------------------------------|
D|-----------------0------------------------|
A|--3--5--3--5------------3--5--3--5-----5--|
E|--------------7---------------------7-----|

Final
e|------------------------------------------|
B|------------------------------------------|
G|----------------------5--4--2-------------|
D|--4--5--7--9--7----5--5--4--2-------------|
A|-------------------5--3--2--0-------------|
E|-------------------3----------------------|

Sugestões para melhorar a TAB são sempre bem-vindas!

Abreijos,
Zolw

            
            
Suggest correction
Creating personal tab
Creating personal tab
You can edit any tab online and save it as your Personal.

You can edit, replace or remove any tab part or add personal notes – all changes will be seen only by you.

Personal tabs can be accessed anytime from any device, even offline.
Learn more »
Give kudos to tab author, rate the tab!
1 2 3 4 5
comments
print report bad tab
2 comments total.
0 reply
diogoduarte96 12 Sep 21, 2016 04:03 PM

Intro/Main Riff (x8)
e|---------------------------------------|
B|---------------------------------------|
G|---------------------------------------|
D|-----------5--4------------------------|
A|-----5--7--------5--------5------------|
E|--7-----------------7--7---------------|

eu faria assim o intro

guest
You may want to rate the tab now too:
select rating
Wanna post a correction for this tab? Suggest correction