Oops, an error
Loading. Please wait.
We have an official Ace Of Spades tab made by UG professional guitarists. Check out the tab »
×

Ace Of Spades bass

version 5
version 5

Whole song

  • I have been playing this for a while and it seems to fit pretty well.
  • Transcribed from CoverSolutions, video link in tab. Arranged for autoscroll.
1,717 views 6 this week
no commentswrite comment
1 2 3 4 5
2 more votes to show rating
add to favorites
×
Save as Personal and add changes to this tab that will be seen only by you. Learn more ›
×
You can save this tab as Personal to edit and correct it or add notes. All changes will be seen only by you. Learn more »
launch autoscroll
font size
0
reset
guitar tuner
backing track
0:00
0:00
edit
Autoscroll
slow
fast
+/-
esc
set tempo
stop
About this tab version
I have been playing this for a while and it seems to fit pretty well. Was this info helpful? Yes No
-------------------------------------------------------------------------------
                             Ace Of Spades - Motorhead
-------------------------------------------------------------------------------

Tuning: Tune down 1/2 step

Intro
Gb|------------------|
Db|------------------|
Ab|-7-77-777-7-7-7-5-| x3
Eb|------------------|

Gb|----------------------------------------------------------------------------------------|(These are
Db|----------------------------------------------------------------------------------------| 11s and 18s
Ab|-7777-7/11/18-18\7-7-777-7-77-7-5-7-7-77-7-7-77-755-7-7-77-7-7-77-7-5-7-7-77-7-7-77-7-5-| not 1s and 8s)
Eb|----------------------------------------------------------------------------------------|

Verse
Gb|-7-7-77-7-7-77-7-7-7-7-77-7-7-77-7-7-7-7-77-7-7-77-7-7-7--7--7--7--7-7-|
Db|-5-5-55-5-5-55-5-5-5-5-55-5-5-55-5-5-5-5-55-5-5-55-5-5-5--5--5--5--5-5-|
Ab|-----------------------------------------------------------------------|
Eb|-----------------------------------------------------------------------|

Gb|-------------------------------------------------------------------------|
Db|-------------------------------------------------------------------------|
Ab|-7-7-77-7-7-77-7-5-7-7-7777-7-77-7-5/7-7-77-7-7-77-777-7-7-77-7-7-77-766-|
Eb|-------------------------------------------------------------------------|

Gb|-------------------------------------------------------------------------|
Db|-------------------------------------------------------------------------|
Ab|-5-5-55-5-5-55-5-4-3-3-33-3-3--3-3-5-7-7-7777-7--7-7-5/7-7-7777-7-77-766-|
Eb|-------------------------------------------------------------------------|

Gb|-------------------------------------|
Db|-------------------------------------|
Ab|-5-5-55-5-5-55-5-5-3-3-33-3-3-33-355-|
Eb|-------------------------------------|

Chorus
Gb|-------------------------------------|
Db|-------------------------------------|
Ab|-7-7-7777-7-77-777-7-7-7777-7-77-777-|
Eb|-------------------------------------|

Interlude
Gb|-----------------------------------77-|
Db|-----------------------------------55-|
Ab|-7-7-7777-7-77-7-7-7-7-77-7-7-77-77---|
Eb|--------------------------------------|

Verse
Gb|-7-7-77-7-7--7-777-7-7-77-7-7-77-7-7-7-7-77-7-7--77-7-7--7-7-7--7-7-------|
Db|-5-5-55-5-5--5-555-5-5-55-5-5-55-5-5-5-5-55-5-5--55-5-5--5-5-5--5-5-------|
Ab|--------------------------------------------------------------------5/7-7-|
Eb|--------------------------------------------------------------------------|

Gb|-------------------------------------------------------------------------------|
Db|-------------------------------------------------------------------------------|
Ab|-77-7-7-77-757-7-7-77-7-7-77-7-6-5-5-55-5-5-55-554-3-33-3-3-3-33-3355-7-7-77-7-|
Eb|-------------------------------------------------------------------------------|

Gb|----------------------------------------------------------------|
Db|----------------------------------------------------------------|
Ab|-7-77-755-7-7-77-7-7-77-7-6-5-55-5-5-5-55-554-3-3-33-3-3-33-3-5-|
Eb|----------------------------------------------------------------|

Chorus
Gb|-------------------------------------|
Db|-------------------------------------|
Ab|-7-77-7-7-7-77-755-7-7-77-7-7-77-755-|
Eb|-------------------------------------|

Interlude
Gb|--------------------------------------------------------------------------|
Db|--------------------------------------------------------------------------|
Ab|-7-7--7-7-77--7-5-5-7-7--7-7-7-77-5-5-7-7--7-7-7--7-5-5-7-7--777-7-77-5-5-|
Eb|--------------------------------------------------------------------------|

Bridge
Gb|-----------------------------------------------------------------------------|
Db|-----------------------------------------------------------------------------|
Ab|-7~--------5-7~----------7-7-7-7-7-7-7766-5-5-55-5-5-55-5-5-5-55-55-5-7--5-3-|
Eb|-----------------------------------------------------------------------------|

Gb|------------------------------------|
Db|------------------------------------|
Ab|-2-22-22-2-2-22-2-2-2-22-2-2-2-22-2-|
Eb|------------------------------------|

Guitar Solo
Gb|-9-9-9-9--9-9-9-999-9-9-99-9-9--9-9-9-9-99-99-9-9-99-9-9-9--8-9-8-9-10-|(This is a 10 not 1 and 0)
Db|-7-7-7-7--7-7-7-777-7-7-77-7-7--7-7-7-7-77-77-7-7-77-7-7-7--6-7-6-7--8-|
Ab|-----------------------------------------------------------------------|
Eb|-----------------------------------------------------------------------|

Gb|-11-11-11-11-11-11-11-11-11-11-11-11-11-11-11-11-11-11-11-11-11-11-11-11-11-|(These are 11s not 1s,
Db|--9--9--9--9--9--9--9--9--9--9--9--9--9--9--9--9--9--9--9--9--9--9--9--9--9-| some are quavers and are
Ab|----------------------------------------------------------------------------| separated so they are
Eb|----------------------------------------------------------------------------| easier to read)

Gb|-11-11-11-11-11-11--11-11-11-11--11-11-10-9-9-9999-9--9-9-9-9-9-99-9-9--99-9-|
Db|--9--9--9--9--9--9---9--9--9--9---9--9--8-7-7-7777-7--7-7-7-7-7-77-7-7--77-7-|
Ab|-----------------------------------------------------------------------------|
Eb|-----------------------------------------------------------------------------|

Gb|-9-9-99-9-9-99-9-9-9--9-9-9-9--99-9-|
Db|-7-7-77-7-7-77-7-7-7--7-7-7-7--77-7-|
Ab|------------------------------------|
Eb|------------------------------------|

Interlude
Gb|-------------------------------------------------------------------------|
Db|-------------------------------------------------------------------------|
Ab|-7-7-77-7-7-77-755-7-7-77-7-7-77-7-5-7-7-77-7-7-77-7-7-7-7-77-7-7-77-7-7-|
Eb|-------------------------------------------------------------------------|

Verse
Gb|-7-7-77-7-7-77-7-7-7-7-77-7-7-77-7-7-7-7-77-7-7-77-7-7-7--7--7--7--7-7-|
Db|-5-5-55-5-5-55-5-5-5-5-55-5-5-55-5-5-5-5-55-5-5-55-5-5-5--5--5--5--5-5-|
Ab|-----------------------------------------------------------------------|
Eb|-----------------------------------------------------------------------|

Gb|-------------------------------------------------------------------------|
Db|-------------------------------------------------------------------------|
Ab|-7-7-77-7-7-77-7-5-7-7-7777-7-77-7-5/7-7-77-7-7-77-777-7-7-77-7-7-77-766-|
Eb|-------------------------------------------------------------------------|

Gb|-------------------------------------------------------------------------|
Db|-------------------------------------------------------------------------|
Ab|-5-5-55-5-5-55-5-4-3-3-33-3-3--3-3-5-7-7-7777-7--7-7-5/7-7-7777-7-77-766-|
Eb|-------------------------------------------------------------------------|

Gb|-------------------------------------|
Db|-------------------------------------|
Ab|-5-5-55-5-5-55-5-5-3-3-33-3-3-33-355-|
Eb|-------------------------------------|

Chorus
Gb|---------------------------------------------|
Db|---------------------------------------------|
Ab|-7-7-7777-7-77-777-7-7-7777-7-77-777-7-77-7-5|
Eb|---------------------------------------------|

End
Gb|-------------------------------------------------------------------------------------------|
Db|-------------------------------------------------------------------------------------------|
Ab|-7-7-7777-7--7-7-5-7-7-7777-7-77-777-7-7-7777-7-77-7-7-7-7-7777-7-77-755-5-5-55-5-5-55-553-|
Eb|-------------------------------------------------------------------------------------------|

Gb|-----------------------------------------------------------------------------|
Db|-----------------------------------------------------------------------------|
Ab|-3-33-3-3-3-3-3-3-5-5-55-5-5-5-55-553-3-3-33-3-3-33-3-37-7--5-7-7\-7--5-7-7\-|
Eb|-----------------------------------------------------------------------------|



| /  slide up
| \  slide down
| h  hammer-on
| p  pull-off
| ~  vibrato
| +  harmonic
| x  Mute note
===============================================================================

            
            
Suggest correction
Creating personal tab
Creating personal tab
You can edit any tab online and save it as your Personal.

You can edit, replace or remove any tab part or add personal notes – all changes will be seen only by you.

Personal tabs can be accessed anytime from any device, even offline.
Learn more »
Give kudos to tab author, rate the tab!
1 2 3 4 5
comments
print report bad tab
guest
You may want to rate the tab now too:
select rating
Wanna post a correction for this tab? Suggest correction