Oops, an error
Loading. Please wait.

Westerland bass

version 1
version 1

Whole song

1,842 views 18 this week
no commentswrite comment
1 2 3 4 5
1 last vote to show rating
add to favorites
×
Save as Personal and add changes to this tab that will be seen only by you. Learn more ›
×
You can save this tab as Personal to edit and correct it or add notes. All changes will be seen only by you. Learn more »
launch autoscroll
font size
0
reset
guitar tuner
edit
Autoscroll
slow
fast
+/-
esc
set tempo
stop
Author
Difficulty
-------------------------------------------------------------------------------
                             Westerland- Die Ärzte
-------------------------------------------------------------------------------
Tabbed by: maxrt
E-mail: max-froh123@gmx.de

Tuning: Standard

Intro/Chorus
                                       ich will zurück nach Westerland
G|------------------------------------|---------------------------------------|
D|------------------------------------|---------------------------------------|  Intro: x5
A|----------5--5-5-----7--7--75--3----|----------3----------------------------|  Chorus: x3
E|-3--3--333--------------------------|-3----------------3--------------------|

Verse
  Jeden Tag sitz ich... ich hör den Wellen |zu
G|-----------------------------------------|----------------------------------|
D|-----------------------------------------|----------------------------------|   x2
A|-----------------------------------------|5-5-5-5-5-5-5-5-------------------|
E|-3-3-3-3-3-3-3-3-3-3-3-3-3-3-3-3-3-3-3-3-|----------------------------------|
  
  Diese eine Liebe...               Wann werd ich sie wiedersehn'?
G|-----------------|---------------|----------------|------------------------|
D|-----------------|---------------|----------------|------------------------|
A|-3-3-3-3-3-3-3-3-|2-2-2-2-2-2-2-2|-3-3-3-3-3-3-3-3|-5-5-5-5-5-5-5-5--------|
E|-----------------|---------------|----------------|------------------------|

Bridge
   Es ist zwar etwas teurer...    genauso blöd wie| ich
G|------------------------------------------------|--------------------------------|
D|------------------------------------------------|--------------------------------|
A|------------------------------------------------|-3-3-3-3-3-3-3-3-5-5-5-5-5-5-5-5|
E|-1--1--1--1--3--3--3--3--1--1--1--1--0--0--0--0-|--------------------------------|

Outro
   Ich will zurück| Ich will zurück |  Ich will zurück
G|----------------|-----------------|--------------------------|
D|----------------|-----------------|--------------------------|
A|----------------|-3--3-35---------|--------------------------|
E|-5--5-57--------|-----------------|-5--5-57------------------|

  Ich will zurück nach Westerland  (Strike together with the vocals)
G|----------------------------(0)--------------------------|
D|---------------------------------------------------------|
A|-2---3---2-----------3---2---3---------------------------|
E|-------------3---0---------------------------------------|

Note: This is my first contribution (I´ve done it because this is a great song and I missed 
      a bass tab for it). Please don't be too rude, if you have suggestions to make improve it write me
      an E- mail. Thanks.


            
            
Suggest correction
Creating personal tab
Creating personal tab
You can edit any tab online and save it as your Personal.

You can edit, replace or remove any tab part or add personal notes – all changes will be seen only by you.

Personal tabs can be accessed anytime from any device, even offline.
Learn more »
Give kudos to tab author, rate the tab!
1 2 3 4 5
comments
print report bad tab
guest
You may want to rate the tab now too:
select rating
Wanna post a correction for this tab? Suggest correction