Oops, an error
Loading. Please wait.
We have Chord Pro version of Home.
It's the closest thing you can get to the original song and it has interactive parts. Check out the tab »
×

Home chords

version 3
version 3

Whole song

  • Corrected some lyrics that prior versions were inc... Show more

Interactive

11,351 views 111 this week
no commentswrite comment
1 2 3 4 5
x 17
add to favorites
×
Save as Personal and add changes to this tab that will be seen only by you. Learn more ›
×
You can save this tab as Personal to edit and correct it or add notes. All changes will be seen only by you. Learn more »
launch autoscroll
font size
0
reset
transpose
0
reset
simplify chords
display chords
guitar tuner
edit
Autoscroll
slow
fast
+/-
esc
set tempo
stop
Author
Difficulty
intermediate
About this tab version
Corrected some lyrics that prior versions were incorrect with. Introduced new tabs for intro/ solo and verses. Added some new chord structure for the song. Was this info helpful? Yes No
Strumming Is this strumming pattern correct? Yes No
Verse 100 bpm
1
&
2
&
3
&
4
&
5
&
Listen
No Capo | Standard Tuning
G     - 320033
D/F#  - 20023x
Em    - 022000
D11   - x5403x
C7M   - x3200x
D     - xx0232
Em7   - 022030
Asus4 - x02230
A     - x02220
F7M/C - x33210
Dsus  - xx0233
Bm    - x24432
F/G   - 3x321x
G7(9) - 3x320x

[Intro]
e|---------------------------------------------------------------------------|
B|---------------------------------------------0-3-------------3-3-----------|
G|----2h4-2------0h2-0------0-----0--------0-----2p0-----------4-2-----------|
D|---0---------0----------2-----4---4--0h2---2-------4-0----0--0-------------|
A|----------------------------5--------3-------------------------------------|
E|-3---------2----------0---------------------------------3------------------|

[Verse 1]
G                  D/F#
Another summer day 
                       Em
Has come and gone away
                D11
In Paris and Rome
                 C7M
But I wanna go home

   D        G            D
e|---------------------------------------------------------------------------|
B|-3------------0--------3----3----------------------------------------------|
G|-2p0---0------0--------2h4--2----------------------------------------------|
D|-0---4------0-0-----0--0----0----------------------------------------------|
A|---------------------------------------------------------------------------|
E|----------3-------3--------------------------------------------------------|

[Verse 2]
G                   D/F#
Maybe surrounded by
                   Em
A million people I
                  D11
Still feel all alone
                  C7M
I just wanna go home 
   D        G            
e|---------------------------------------------------------------------------|
B|-3-------------0-------0---------------------------------------------------|
G|-2p0---0-------0-------0---------------------------------------------------|
D|-0---4------0--0----0--0----0----------------------------------------------|
A|---------------------------------------------------------------------------|
E|----------3-------3-------3------------------------------------------------|
Oh I miss you, you know

[Chorus I]
                 C7M
And I've been keeping all the letters 
         Em7
That I wrote to you
             Asus4    A
Each one a line or two 
                C7M         D11
I'm fine baby, how are you?
             C7M  
Well I would send them 
                          Em7
But I know that it's just not enough
                F7M/C
My words were cold and flat 
                 
                Dsus      D 
e|---------------------3--2--------------------------------------------------|
B|-------------------3----3--3----3------------------------------------------|
G|-----------------2------2--2h4--2p0---0------------------------------------|
D|---------------0--------0-----------4--------------------------------------|
A|---------------------------------------------------------------------------|
E|---------------------------------------------------------------------------|
 And you deserve more than that

[Verse 3]
G                D/F#
Another aeroplane
                  Em
Another sunny place
              D11  
I'm lucky I know
                 C7M
But I wanna go home
          D      G     D 
I've got to go home

          G  D   Em  Bm
Let me go hoooooooome
             C7M
I'm just too far 
                Em
from where you are
    D        G    D
I wanna come home

[Solo - Chords]
G  D/F#  Em  D11  C7M  D  G

[Solo - Tabs]
e|-----10~--10-12-12/14\12p10----10-12---------------------------------------|
B|-7-8------------------------12--------10h12~--10-8\7-8-10-7----7h8--7h8----|
G|-----------------------------------------------------------7--7h9--7h9-----|
D|---------------------------------------------------------------------------|
A|---------------------------------------------------------------------------|
E|---------------------------------------------------------------------------|

e|----------------------15-14-----------------------------15-12--------------|
B|-------15-10/12-------------15----15--------------15-15--------------------|
G|----------------12-10----------14----14h16--12-14--------------------------|
D|-12-14---------------------------------------------------------------------|
A|---------------------------------------------------------------------------|
E|---------------------------------------------------------------------------|

[Chorus II]
       C7M                               
And I feel just like I'm living 
         Em7
Someone else's life
                    Asus4    A
It's like I just stepped outside
                     C7M       D11
When everything was going right
        C7M 
And I know just why you could not 
      Em7
Come along with me
                 F7M/C 
Cause this was not your dream

                Dsus      D 
e|---------------------3--2--------------------------------------------------|
B|-------------------3----3--3----3------------------------------------------|
G|-----------------2------2--2h4--2p0---0------------------------------------|
D|---------------0--------0-----------4--------------------------------------|
A|---------------------------------------------------------------------------|
E|---------------------------------------------------------------------------|
But you always believed in me

[Verse 4]
G                  D/F#
Another winter day 
                       Em
Has come and gone away
                     D11
In either Paris and Rome
                 C7M
And I wanna go home
   D        G            D
e|---------------------------------------------------------------------------|
B|-3------------0--------3----3----------------------------------------------|
G|-2p0---0------0--------2h4--2----------------------------------------------|
D|-0---4------0-0-----0--0----0----------------------------------------------|
A|---------------------------------------------------------------------------|
E|----------3-------3--------------------------------------------------------|
Let me go home

[Verse 6]
G                     D/F#
And I'm surrounded by
                   Em
A million people I
F/G             G7(9)
Still feel alone
             C7M
And let go home
   D        G            D
e|---------------------------------------------------------------------------|
B|-3------------0--------3----3----------------------------------------------|
G|-2p0---0------0--------2h4--2----------------------------------------------|
D|-0---4------0-0-----0--0----0----------------------------------------------|
A|---------------------------------------------------------------------------|
E|----------3-------3--------------------------------------------------------|
Oh, I miss you, you know

          G  D   Em  Bm
Let me go hoooooooome
             C7M
I've had my run 
           Em
Baby, I'm done
  D        G     D
I gotta go home
          G  D   Em  Bm
Let me go hoooooooome
           C7M
It'll be alright
                D11
I'll be home tonight
                 G      
I'm coming back home

************************************

| /   slide up
| \   slide down
| h   hammer-on
| p   pull-off
| ~   vibrato
| b   Bend

************************************

            
            
Suggest correction
Creating personal tab
Creating personal tab
You can edit any tab online and save it as your Personal.

You can edit, replace or remove any tab part or add personal notes – all changes will be seen only by you.

Personal tabs can be accessed anytime from any device, even offline.
Learn more »
comments
print report bad tab
guest
You may want to rate the tab now too:
select rating
Wanna post a correction for this tab? Suggest correction