Oops, an error
Loading. Please wait.

With The Ink Of A Ghost tab

version 1
version 1

Whole song

10,426 views 162 this week
4 commentsread comments
1 2 3 4 5
x 20
add to favorites
×
Save as Personal and add changes to this tab that will be seen only by you. Learn more ›
×
You can save this tab as Personal to edit and correct it or add notes. All changes will be seen only by you. Learn more »
launch autoscroll
font size
0
reset
how to read this tab
guitar tuner
edit
Autoscroll
slow
fast
+/-
esc
set tempo
stop
---------------------------------------------------------------------------------------------------
                               With the Ink of a Ghost - José González
---------------------------------------------------------------------------------------------------


Tuning: Drop D Tuning, Capo 3rd Fret
Time Signature: 6/4 (4/4 Triplets (12/8))
Key Signature: G minor (Bb, Eb)

Notes: 

• Some portions of the song may be counted more easily in a 4/4 triplet time (in other words, 12/8).
• Hammer-ons and pull-offs are notated without the preceding note. As such, in the first measure,
  5th beat, 0p is equivalent to 2-0p or 2p0. This was done to clean up the score and because the preceding
  note is always obvious.
• Be sure to reference the key if you are unsure of the notation.

Tabbed by Corvus Prudens


[Introduction:]

 (1   +   a   2   +   a   3   +   a   4   +   a    1   +   a   2   +   a   3   +   a   4   +   a   )
  1   2   3   4   5   6   7   8   9   10  11  12   1   2   3   4   5   6   7   8   9   10  11  12
e|------------------------------------------------|-------------------------------(0)--------------|
B|-------(0)---------(0)---------------------(0)--|-------(0)---------(0)--------------------------|
G|---(0)----------0-----------0-------------------|---(0)----------0-----------0--------------(0)--|
D|------------------------4-------2---0p----------|------------------------4-------2---0p----------|
A|------------2---------------------------2-------|------------2---------------------------0-------|
D|2-----------------------------------------------|2-----------------------------------------------|

  1   2   3   4   5   6   7   8   9   10  11  12   1   2   3   4   5   6   7   8   9   10  11  12
e|-----------------------(0)----------------------|-----------(0)----------------------------------|
B(0)-----------------(0)---------(0)---------(0)--|-------------------(0)---------(0)---------(0)--|
G|---(0)---------(0)---------(0)---------(0)------|---(0)---------(0)---------(0)---------(0)------|
D|------------0-----------------------------------|------------0-----------------------------------|
A|--------0-2h------------------------2-----------|--------2---------------------------0-----------|
D|5-----------------------5-----------------------|5-----------------------5-----------------------|
         |--3--|

  1   2   3   4   5   6   7   8   9   10  11  12   1   2   3   4   5   6   7   8   9   10  11  12
e|------------------------------------------------|-------------------------------(0)--------------|
B|-------(0)---------(0)---------------------(0)--|-------(0)---------(0)---------------------(0)--|
G|---(0)----------0-----------0-------------------|---(0)----------0----------------------(0)------|
D|------------------------4-------2---0p----------|------------------------2---0p------------------|
A|------------2---------------------------2-------|------------2-------------------2---0-----------|
D|2-----------------------------------------------|2-----------------------------------------------|

  1   2   3   4   5   6   7   8   9   10  11  12   1   2   3   4   5   6   7   8   9   10  11  12
e|-----------------------(0)----------------------|-----------------------(0)----------------------|
B(0)-----------------(0)---------------------(0)--|-------------------(0)---------(0)---------(0)--|
G|---(0)---------(0)---------(0)---------(0)------|---(0)---------(0)---------(0)---------(0)------|
D|------------0-----------------------0-----------|------------0-----------------------------------|
A|--------0-2h--------------------2---------------|--------2---------------------------0-----------|
D|5-----------------------5-----------------------|5-----------------------5-----------------------|
         |--3--|

\\\\\\\\\\\\\\\\\\\\\\\\\\\\\\\\\\\\\\\\\\\\\\\\\\\\\\\\\\\\\\\\\\\\\\\\\\\\\\\\\\\\\\\\\\\\\\\\\\\\


[Verse 1]
(Idle, as it seemed...)

  1   2   3   4   5   6   7   8   9   10  11  12   1   2   3   4   5   6   7   8   9   10  11  12
e|------------------------------------------------|-------------------------------(0)--------------|
B|-------(0)---------(0)---------------------(0)--|-------(0)---------(0)--------------------------|
G|---(0)----------0-----------0-------------------|---(0)----------0-----------0--------------(0)--|
D|------------------------4-------2---0p----------|------------------------4-------2---0p----------|
A|------------2---------------------------2-------|------------2---------------------------0-------|
D|2-----------------------------------------------|2-----------------------------------------------|

  1   2   3   4   5   6   7   8   9   10  11  12   1   2   3   4   5   6   7   8   9   10  11  12
e|-----------------------(0)----------------------|-----------------------(0)----------------------|
B(0)-----------------(0)---------------------(0)--|-------------------(0)---------(0)---------(0)--|
G|---(0)---------(0)---------(0)---------(0)------|---(0)---------(0)---------(0)---------(0)------|
D|------------0-----------------------0-----------|------------0-----------------------------------|
A|--------0-2h--------------------2---------------|--------2---------------------------0-----------|
D|5-----------------------5-----------------------|5-----------------------5-----------------------|
         |--3--|

  1   2   3   4   5   6   7   8   9   10  11  12   1   2   3   4   5   6   7   8   9   10  11  12
e|------------------------------------------------|-------------------------------(0)--------------|
B|-------(0)---------(0)---------------------(0)--|-------(0)---------(0)---------------------(0)--|
G|---(0)----------0-----------0-------------------|---(0)----------0----------------------(0)------|
D|------------------------4-------2---0p----------|------------------------2---0p------------------|
A|------------2---------------------------2-------|------------2-------------------2---0-----------|
D|2-----------------------------------------------|2-----------------------------------------------|

  1   2   3   4   5   6   7   8   9   10  11  12   1   2   3   4   5   6   7   8   9   10  11  12
e|-----------------------(0)----------------------|-----------------------(0)----------------------|
B(0)-----------------(0)---------------------(0)--|-------------------(0)---------(0)---------(0)--|
G|---(0)---------(0)---------(0)---------(0)------|---(0)---------(0)---------(0)---------(0)------|
D|------------0-----------------------0-----------|------------0-----------------------------------|
A|--------0-2h--------------------2---------------|--------2---------------------------2-----------|
D|5-----------------------5-----------------------|5-----------------------5-----------------------|
         |--3--|

  1   2   3   4   5   6   7   8   9   10  11  12   1   2   3   4   5   6   7   8   9   10  11  12
e|------------------------------------------------|------------------------------------------------|
B|-------(0)---------(0)-----(0)------------------|-------(0)---------(0)-----(0)-------------(0)--|
G|---(0)------------------0-----------0-----------|---(0)------------------0-----------0-----------|
D|------------2---4h--------------4-------2---0p--|------------2---4h--------------4-------2-------|
A|0-----------------------------------------------|0-----------------------------------------------|
D|------------------------------------------------|------------------------------------------------|

  1   2   3   4   5   6   7   8   9   10  11  12   1   2   3   4   5   6   7   8   9   10  11  12
e|------------------------------------------------|------------------------------------------------|
B|---(0)-------------(0)---------(0)---------(0)--|-------(0)---------(0)---------(0)---------(0)--|
G|------------0--------------(0)---------(0)------|---(0)---------(0)---------(0)---------(0)------|
D|--------0-2h------------------------2-----------|------------2-----------------------0-----------|
A|3-----------------------3-----------------------|3-----------------------3-----------------------|
D|------------------------------------------------|------------------------------------------------|
         |--3--|       

  1   2   3   4   5   6   7   8   9   10  11  12   1   2   3   4   5   6   7   8   9   10  11  12
e|------------------------------------------------|------------------------------------------------|
B|-------(0)---------(0)-----(0)-------------(0)--|-------(0)---------(0)-----(0)------------------|
G|---(0)------------------0-----------------------|---(0)------------------0-----------0-----------|
D|------------2---4h--------------4---2p--0-------|------------2---4h--------------4-------2---0p--|
A|0-----------------------------------------------|0-----------------------------------------------|
D|------------------------------------------------|------------------------------------------------|

  1   2   3   4   5   6   7   8   9   10  11  12   1   2   3   4   5   6   7   8   9   10  11  12
e|-----------------------------------(0)----------|-----------(0)---------------------(0)----------|
B|---(0)-------------(0)---------(0)---------(0)--|-------(0)---------(0)---------(0)---------(0)--|
G|------------0--------------(0)---------(0)------|---(0)---------(0)---------(0)---------(0)------|
D|--------0-2h------------------------2-----------|------------2-----------------------0-----------|
A|3-----------------------3-----------------------|3-----------------------3-----------------------|
D|------------------------------------------------|------------------------------------------------|
         |--3--|       

  1   2   3   4   5   6   7   8   9   10  11  12   1   2   3   4   5   6   7   8   9   10  11  12
e|-----------(0)---------------------(0)----------|------------------------------------------------|
B|-------(0)---------(0)---------(0)---------(0)--|-------(0)---------(0)---------(0)---------(0)--|
G|---(0)---------(0)---------(0)---------(0)------|---(0)---------(0)---------(0)---------(0)------|
D|-----------------------(0)----------------------(0)----------------------------------------------|
A|------------5-----------------------3-----------|------------2-----------0-----------------------|
D|0-----------------------------------------------|------------------------------------0-----------|


\\\\\\\\\\\\\\\\\\\\\\\\\\\\\\\\\\\\\\\\\\\\\\\\\\\\\\\\\\\\\\\\\\\\\\\\\\\\\\\\\\\\\\\\\\\\\\\\\\\\


[Verse 2]
(Scattered rays of light...)

  1   2   3   4   5   6   7   8   9   10  11  12   1   2   3   4   5   6   7   8   9   10  11  12
e|------------------------------------------------|-------------------------------(0)--------------|
B|-------(0)---------(0)---------------------(0)--|-------(0)---------(0)--------------------------|
G|---(0)----------0-----------0-------------------|---(0)----------0-----------0--------------(0)--|
D|------------------------4-------2---0p----------|------------------------4-------2---0p----------|
A|------------2---------------------------2-------|------------2---------------------------0-------|
D|2-----------------------------------------------|2-----------------------------------------------|

  1   2   3   4   5   6   7   8   9   10  11  12   1   2   3   4   5   6   7   8   9   10  11  12
e|-----------------------(0)----------------------|-----------------------(0)----------------------|
B(0)-----------------(0)---------------------(0)--|-------------------(0)---------(0)---------(0)--|
G|---(0)---------(0)---------(0)---------(0)------|---(0)---------(0)---------(0)---------(0)------|
D|------------0-----------------------0-----------|------------0-----------------------------------|
A|--------0-2h--------------------2---------------|--------2---------------------------0-----------|
D|5-----------------------5-----------------------|5-----------------------5-----------------------|
         |--3--|

  1   2   3   4   5   6   7   8   9   10  11  12   1   2   3   4   5   6   7   8   9   10  11  12
e|------------------------------------------------|-------------------------------(0)--------------|
B|-------(0)---------(0)---------------------(0)--|-------(0)---------(0)---------------------(0)--|
G|---(0)----------0-----------0-------------------|---(0)----------0----------------------(0)------|
D|------------------------4-------2---0p----------|------------------------2---0p------------------|
A|------------2---------------------------2-------|------------2-------------------2---0-----------|
D|2-----------------------------------------------|2-----------------------------------------------|

  1   2   3   4   5   6   7   8   9   10  11  12   1   2   3   4   5   6   7   8   9   10  11  12
e|-----------------------(0)----------------------|-----------------------(0)----------------------|
B(0)-----------------(0)---------------------(0)--|-------------------(0)---------(0)---------(0)--|
G|---(0)---------(0)---------(0)---------(0)------|---(0)---------(0)---------(0)---------(0)------|
D|------------0-----------------------0-----------|------------0-----------------------------------|
A|--------0-2h--------------------2---------------|--------2---------------------------2-----------|
D|5-----------------------5-----------------------|5-----------------------5-----------------------|
         |--3--|

  1   2   3   4   5   6   7   8   9   10  11  12   1   2   3   4   5   6   7   8   9   10  11  12
e|------------------------------------------------|------------------------------------------------|
B|-------(0)---------(0)-----(0)------------------|-------(0)---------(0)-----(0)-------------(0)--|
G|---(0)------------------0-----------0-----------|---(0)------------------0-----------0-----------|
D|------------2---4h--------------4-------2---0p--|------------2---4h--------------4-------2-------|
A|0-----------------------------------------------|0-----------------------------------------------|
D|------------------------------------------------|------------------------------------------------|

  1   2   3   4   5   6   7   8   9   10  11  12   1   2   3   4   5   6   7   8   9   10  11  12
e|------------------------------------------------|------------------------------------------------|
B|---(0)-------------(0)---------(0)---------(0)--|-------(0)---------(0)---------(0)---------(0)--|
G|------------0--------------(0)---------(0)------|---(0)---------(0)---------(0)---------(0)------|
D|--------0-2h------------------------2-----------|------------2-----------------------0-----------|
A|3-----------------------3-----------------------|3-----------------------3-----------------------|
D|------------------------------------------------|------------------------------------------------|
         |--3--|       

  1   2   3   4   5   6   7   8   9   10  11  12   1   2   3   4   5   6   7   8   9   10  11  12
e|------------------------------------------------|------------------------------------------------|
B|------------1-------1---------------1-------1---|------------3-------3---------------3-------3---|
G|------------------------------------------------|------------------------------------------------|
D|----------------2-----------------------2-------|----------------4-----------------------4-------|
A|------------3-----------------------3-----------|------------5-----------------------5-----------|
D|0---0---0---------------0---0---0---------------|0---0---0---------------0---0---0---------------|

  1   2   3   4   5   6   7   8   9   10  11  12   1   2   3   4   5   6   7   8   9   10  11  12
e|------------------------------------------------|------------------------------------------------|
B|------------1-------1---------------1-------1---|------------3-------3---------------------------|
G|------------------------------------------------|------------------------------------------------|
D|----------------2-----------------------2-------|----------------4-----------------------0-------|
A|------------3-----------------------3-----------|------------5-----------------------0-2h--------|
D|0---0---0---------------0---0---0---------------|0---0---0---------------0-------------------0---|
                                                                                      |--3--|

\\\\\\\\\\\\\\\\\\\\\\\\\\\\\\\\\\\\\\\\\\\\\\\\\\\\\\\\\\\\\\\\\\\\\\\\\\\\\\\\\\\\\\\\\\\\\\\\\\\\


[Verse 3]
(Opening up the vault...)

  1   2   3   4   5   6   7   8   9   10  11  12   1   2   3   4   5   6   7   8   9   10  11  12
e|------------------------------------------------|-------------------------------(0)--------------|
B|-------(0)---------(0)---------------------(0)--|-------(0)---------(0)--------------------------|
G|---(0)----------0-----------0-------------------|---(0)----------0-----------0--------------(0)--|
D|------------------------4-------2---0p----------|------------------------4-------2---0p----------|
A|------------2---------------------------2-------|------------2---------------------------0-------|
D|2-----------------------------------------------|2-----------------------------------------------|

  1   2   3   4   5   6   7   8   9   10  11  12   1   2   3   4   5   6   7   8   9   10  11  12
e|-----------------------(0)----------------------|-----------------------(0)----------------------|
B(0)-----------------(0)---------------------(0)--|-------------------(0)---------(0)---------(0)--|
G|---(0)---------(0)---------(0)---------(0)------|---(0)---------(0)---------(0)---------(0)------|
D|------------0-----------------------0-----------|------------0-----------------------------------|
A|--------0-2h--------------------2---------------|--------2---------------------------0-----------|
D|5-----------------------5-----------------------|5-----------------------5-----------------------|
         |--3--|

  1   2   3   4   5   6   7   8   9   10  11  12   1   2   3   4   5   6   7   8   9   10  11  12
e|------------------------------------------------|-------------------------------(0)--------------|
B|-------(0)---------(0)---------------------(0)--|-------(0)---------(0)---------------------(0)--|
G|---(0)----------0-----------0-------------------|---(0)----------0----------------------(0)------|
D|------------------------4-------2---0p----------|------------------------2---0p------------------|
A|------------2---------------------------2-------|------------2-------------------2---0-----------|
D|2-----------------------------------------------|2-----------------------------------------------|

  1   2   3   4   5   6   7   8   9   10  11  12   1   2   3   4   5   6   7   8   9   10  11  12
e|-----------------------(0)----------------------|-----------------------(0)----------------------|
B(0)-----------------(0)---------------------(0)--|-------------------(0)---------(0)---------(0)--|
G|---(0)---------(0)---------(0)---------(0)------|---(0)---------(0)---------(0)---------(0)------|
D|------------0-----------------------0-----------|------------0-----------------------------------|
A|--------0-2h--------------------2---------------|--------2---------------------------2-----------|
D|5-----------------------5-----------------------|5-----------------------5-----------------------|
         |--3--|

  1   2   3   4   5   6   7   8   9   10  11  12   1   2   3   4   5   6   7   8   9   10  11  12
e|------------------------------------------------|------------------------------------------------|
B|-------(0)---------(0)-----(0)------------------|-------(0)---------(0)-----(0)-------------(0)--|
G|---(0)------------------0-----------0-----------|---(0)------------------0-----------0-----------|
D|------------2---4h--------------4-------2---0p--|------------2---4h--------------4-------2-------|
A|0-----------------------------------------------|0-----------------------------------------------|
D|------------------------------------------------|------------------------------------------------|

  1   2   3   4   5   6   7   8   9   10  11  12   1   2   3   4   5   6   7   8   9   10  11  12
e|------------------------------------------------|------------------------------------------------|
B|---(0)-------------(0)---------(0)---------(0)--|-------(0)---------(0)---------(0)---------(0)--|
G|------------0--------------(0)---------(0)------|---(0)---------(0)---------(0)---------(0)------|
D|--------0-2h------------------------2-----------|------------2-----------------------0-----------|
A|3-----------------------3-----------------------|3-----------------------3-----------------------|
D|------------------------------------------------|------------------------------------------------|
         |--3--|       

  1   2   3   4   5   6   7   8   9   10  11  12   1   2   3   4   5   6   7   8   9   10  11  12
e|------------------------------------------------|------------------------------------------------|
B|------------1-------1---------------1-------1---|------------3-------3---------------3-------3---|
G|------------------------------------------------|------------------------------------------------|
D|----------------2-----------------------2-------|----------------4-----------------------4-------|
A|------------3-----------------------3-----------|------------5-----------------------5-----------|
D|0---0---0---------------0---0---0---------------|0---0---0---------------0---0---0---------------|


  1   2   3   4   5   6   7   8   9   10  11  12   1   2   3   4   5   6   7   8   9   10  11  12
e|------------------------------------------------|------------------------------------------------|
B|------------1-------1---------------1-------1---|------------3-------3---------------3-------3---|
G|------------------------------------------------|------------------------------------------------|
D|----------------2-----------------------2-------|----------------4-----------------------4-------|
A|------------3-----------------------3-----------|------------5-----------------------5-----------|
D|0---0---0---------------0---0---0---------------|0---0---0---------------0---0---0---------------|

  1   2   3   4   5   6   7   8   9   10  11  12   1   2   3   4   5   6   7   8   9   10  11  12
e|------------------------------------------------|------------------------------------------------|
B|------------1-------1---------------1-------1---|------------3-------3---------------3-------3---|
G|------------------------------------------------|------------------------------------------------|
D|----------------2-----------------------2-------|----------------4-----------------------4-------|
A|------------3-----------------------3-----------|------------5-----------------------5-----------|
D|0---0---0---------------0---0---0---------------|0---0---0---------------0---0---0---------------|

  1   2   3   4   5   6   7   8   9   10  11  12   1   2   3   4   5   6   7   8   9   10  11  12
e|------------------------------------------------|0-----------------------0-----------------------|
B|------------1-------1---------------1-------1---|------------3-----------------------3-----------|
G|------------------------------------------------|------------------------------------------------|
D|----------------2-----------------------2-------|--------4-----------4-----------4-----------4---|
A|------------3-----------------------3-----------|----5-----------5-----------5-----------5-------|
D|0---0---0---------------0---0---0---------------|0-----------------------------------------------|



  1   +   2   +   3   +   4   +   5   +   6   +      
e|0-----------0-----------0-----------------------|
B|------------------------------------------------|
G|------------------------------------------------|
D|--------4-----------4-----------4-------0-------|
A|----5-----------5-----------5-------0-2h--------|
D|--------------------------------------------0---|
                                     |--3--|

\\\\\\\\\\\\\\\\\\\\\\\\\\\\\\\\\\\\\\\\\\\\\\\\\\\\\\\\\\\\\\\\\\\\\\\\\\\\\\\\\\\\\\\\\\\\\\\\\\\\

[Verse 4]
(All this time...)

  1   2   3   4   5   6   7   8   9   10  11  12   1   2   3   4   5   6   7   8   9   10  11  12
e^0------^0--|0--^0--|0--^0-------0---------------^0-------0---0---0---0--^0-------0---------------|
B|1------|1--|1--|1--|1--|1-----------------------|3-------3---3---3---3--|3-----------------------|
G|0------|0--|0--|0--|0--|0-----------------------|0-------0---0---0---0--|0-----------------------|
D|2------|2--|2--|2--|2--|2---------------0-------|4-------4---4---4---4--|4---------------0-------|
A|3------|3--v3--|3--v3--|3-----------0-2h--------|5-------5---5---5---5--|5-----------0-2h--------|
D|------------------------------------------------|0-------0---0---0---0--|0-----------------------|
                                     |--3--|                                          |--3--| 

  1   2   3   4   5   6   7   8   9   10  11  12   1   2   3   4   5   6   7   8   9   10  11  12
e|------------------------------------------------|-----------------------^0-------0---------------|
B|----1-----------0-----------1-----------0-------|-----------------------|3-----------------------|
G|--------0-----------0-----------0-----------0---|----2-----------0------|0-----------------------|
D|--------2-----------0-----------2-----------0---|--------0-----------0--|4---------------0-------|
A|3-----------2-----------0-----------------------|-----------------------|5-----------0-2h--------|
D|------------------------------------5-----------|4-----------2----------|0-----------------------|
                                                                                      |--3--|

  1   2   3   4   5   6   7   8   9   10  11  12   1   2   3   4   5   6   7   8   9   10  11  12
e^0-------3---3---3---3--^3-------0---------------^0-------0---0---0---0--^0-------0---------------|
B|1-------1---1---1---1--|1-----------------------|3-------3---3---3---3--|3-----------------------|
G|0-------0---0---0---0--|0-----------------------|0-------0---0---0---0--|0-----------------------|
D|2-------2---2---2---2--|2---------------0-------|4-------4---4---4---4--|4---------------0-------|
A|3-------3---3---3---3--|3-----------0-2h--------|5-------5---5---5---5--|5-----------0-2h--------|
D|------------------------------------------------|0-------0---0---0---0--|0-----------------------|
                                     |--3--|                                          |--3--| 

  1   2   3   4   5   6   7   8   9   10  11  12   1   2   3   4   5   6   7   8   9   10  11  12
e|------------------------------------------------|-----------------------^0-------0---------------|
B|----1-----------0-----------1-----------0-------|-----------------------|3-----------------------|
G|--------0-----------0-----------0-----------0---|----2-----------0------|0-----------------------|
D|--------2-----------0-----------2-----------0---|--------0-----------0--|4---------------0-------|
A|3-----------2-----------0-----------------------|-----------------------|5-----------0-2h--------|
D|------------------------------------5-----------|4-----------2----------|0-----------------------|
                                                                                      |--3--|

  1   2   3   4   5   6   7   8   9   10  11  12   1   2   3   4   5   6   7   8   9   10  11  12
e^3-------3---3---3---3--^3-------3---------------^0-------0---0---0---0--^0-------0---------------|
B|3-------3---3---3---3--|3-----------------------|3-------3---3---3---3--|3-----------------------|
G|0-------0---0---0---0--|0-----------------------|0-------0---0---0---0--|0-----------------------|
D|2-------2---2---2---2--|2---------------0-------|4-------4---4---4---4--|4---------------0-------|
A|0-------0---0---0---0--|0-----------0-2h--------|5-------5---5---5---5--|5-----------0-2h--------|
D|------------------------------------------------|0-------0---0---0---0--|0-----------------------|
                                     |--3--|                                          |--3--|

  1   2   3   4   5   6   7   8   9   10  11  12   1   2   3   4   5   6   7   8   9   10  11  12
e|----3-----------3-----------3-----------0-------^0-------0---0---0---0--^0-------0---------------|
B|--------3-----------3-----------0-----------0---|3-------3---3---3---3--|3-----------------------|
G|--------0-----------0-----------0-----------0---|0-------0---0---0---0--|0-----------------------|
D|------------------------------------------------|4-------4---4---4---4--|4---------------0-------|
A|0-----------2-----------3-----------7-----------|5-------5---5---5---5--|5-----------0-2h--------|
D|------------------------------------------------|0-------0---0---0---0--|0-----------------------|
                                                                                      |--3--|

  1   2   3   4   5   6   7   8   9   10  11  12   1   2   3   4   5   6   7   8   9   10  11  12
e^3-------3---3---3---3--^3-------3---------------^0-------0---0---0---0--^0-------0---------------|
B|3-------3---3---3---3--|3-----------------------|3-------3---3---3---3--|3-----------------------|
G|0-------0---0---0---0--|0-----------------------|0-------0---0---0---0--|0-----------------------|
D|2-------2---2---2---2--|2---------------0-------|4-------4---4---4---4--|4---------------0-------|
A|0-------0---0---0---0--|0-----------0-2h--------|5-------5---5---5---5--|5-----------0-2h--------|
D|------------------------------------------------|0-------0---0---0---0--|0-----------------------|
                                     |--3--|                                          |--3--|

  1   2   3   4   5   6   7   8   9   10  11  12   1   2   3   4   5   6   7   8   9   10  11  12
e|----3-----------3-----------3-----------0-------^0-------0---0---0---0--^0---0---0---0---0--|0---|
B|--------3-----------3-----------0-----------0---|3-------3---3---3---3--|3---3---3---3---0--|0---|
G|--------0-----------0-----------0-----------0---|0-------0---0---0---0--|0---0---0---0---0--|0---|
D|------------------------------------------------|4-------4---4---4---4--|4---4---4---4---0--|0---|
A|0-----------2-----------3-----------7-----------|5-------5---5---5---5--|5---5---5---5---0--|0---|
D|------------------------------------------------|0-------0---0---0---0--|0---0---0---0---0--v0---|

                                                                                        
\\\\\\\\\\\\\\\\\\\\\\\\\\\\\\\\\\\\\\\\\\\\\\\\\\\\\\\\\\\\\\\\\\\\\\\\\\\\\\\\\\\\\\\\\\\\\\\\\\\\

[Interlude]

  1   2   3   4   5   6   7   8   9   10  11  12   1   2   3   4   5   6   7   8   9   10  11  12
e^0------^0---0---0---0--^0------^0---0---0---0---^0------^0---0---0---0--^0------^0---0---0---0---|
B|0------|0---0---0---0--|0------|0---0---0---0---|0------|0---0---0---0--|0------|0---0---0---0---|
G|0------|0---0---0---0--|0------|0---0---0---0---|0------|0---0---0---0--|0------|0---0---0---0---|
D|0---2h-|0p--2h--0p--2h-|0p--2h-|0p--2h--0p--2h--|0p--2h-|0p--2h--0p--2h-|0p--2h-|0p--2h--0p--2h--|
A|3------|3---3---3---3--|3------|3---3---3---3---|3------|3---3---3---3--|3------|3---3---3---3---|
D|3------|3---3---3---3--|3------|3---3---3---3---|3------|3---3---3---3--|3------|3---3---3---3---|

  1   2   3   4   5   6   7   8   9   10  11  12   1   2   3   4   5   6   7   8   9   10  11  12
e|7---5p--0---------------7---5p--0---------------|7---5p--0---------------7---5p--0---------------|
B|------------7---5p------------------7---5p------|------------7---5p------------------7---5p------|
G|------------------------------------------------|------------------------------------------------|
D|------------------------------------------------|------------------------------------------------|
A|------------------------------------------------|------------------------------------------------|
D|0-------0-------0-------0-------0-------0-------|0-------0-------0-------0-------0-------0-------|

  1   2   3   4   5   6   7   8   9   10  11  12   1   2   3   4   5   6   7   8   9   10  11  12
e^0------^0---0---0---0--^0------^0---0---0---0---^0------^0---0---0---0--^0------^0---0---0---0---|
B|0------|0---0---0---0--|0------|0---0---0---0---|0------|0---0---0---0--|0------|0---0---0---0---|
G|0------|0---0---0---0--|0------|0---0---0---0---|0------|0---0---0---0--|0------|0---0---0---0---|
D|0---2h-|0p--2h--0p--2h-|0p--2h-|0p--2h--0p--2h--|0p--2h-|0p--2h--0p--2h-|0p--2h-|0p--2h--0p--2h--|
A|3------|3---3---3---3--|3------|3---3---3---3---|3------|3---3---3---3--|3------|3---3---3---3---|
D|3------|3---3---3---3--|3------|3---3---3---3---|3------|3---3---3---3--|3------|3---3---3---3---|

  1   2   3   4   5   6   7   8   9   10  11  12   1   2   3   4   5   6   7   8   9   10  11  12
e|7---5p--0---------------7---5p--0---------------|7---5p--0---------------7---5p--0---------------|
B|------------7---5p------------------7---5p------|------------7---5p------------------7---5p------|
G|------------------------------------------------|------------------------------------------------|
D|------------------------------------------------|------------------------------------------------|
A|------------------------------------------------|------------------------------------------------|
D|0-------0-------0-------0-------0-------0-------|0-------0-------0-------0-------0-------0-------|

  1   2   3   4   5   6   7   8   9   10  11  12   1   2   3   4   5   6   7   8   9   10  11  12
e^0------^0---0---0---0--^0------^0---0---0---0---^0------^0---0---0---0--^0------^0---0---0---0---|
B|0------|0---0---0---0--|0------|0---0---0---0---|0------|0---0---0---0--|0------|0---0---0---0---|
G|0------|0---0---0---0--|0------|0---0---0---0---|0------|0---0---0---0--|0------|0---0---0---0---|
D|0---2h-|0p--2h--0p--2h-|0p--2h-|0p--2h--0p--2h--|0p--2h-|0p--2h--0p--2h-|0p--2h-|0p--2h--0p--2h--|
A|3------|3---3---3---3--|3------|3---3---3---3---|3------|3---3---3---3--|3------|3---3---3---3---|
D|3------|3---3---3---3--|3------|3---3---3---3---|3------|3---3---3---3--|3------|3---3---3---3---|

  1   2   3   4   5   6   7   8   9   10  11  12   1   2   3   4   5   6   7   8   9   10  11  12
e|7---5p--0---------------7---5p--0---------------|7---5p--0---------------7---5p--0---------------|
B|------------7---5p------------------7---5p------|------------7---5p------------------7---5p------|
G|------------------------------------------------|------------------------------------------------|
D|------------------------------------------------|------------------------------------------------|
A|------------------------------------------------|------------------------------------------------|
D|0-------0-------0-------0-------0-------0-------|0-------0-------0-------0-------0-------0-------|

  1   2   3   4   5   6   7   8   9   10  11  12   1   2   3   4   5   6   7   8   9   10  11  12
e^0------^0---0---0---0--^0------^0---0---0---0---^0------^0---0---0---0--^0------^0---0---0---0---|
B|0------|0---0---0---0--|0------|0---0---0---0---|0------|0---0---0---0--|0------|0---0---0---0---|
G|0------|0---0---0---0--|0------|0---0---0---0---|0------|0---0---0---0--|0------|0---0---0---0---|
D|0---2h-|0p--2h--0p--2h-|0p--2h-|0p--2h--0p--2h--|0p--2h-|0p--2h--0p--2h-|0p--2h-|0p--2h--0p--2h--|
A|3------|3---3---3---3--|3------|3---3---3---3---|3------|3---3---3---3--|3------|3---3---3---3---|
D|3------|3---3---3---3--|3------|3---3---3---3---|3------|3---3---3---3--|3------|3---3---3---3---|

  1   2   3   4   5   6   7   8   9   10  11  12   1   2   3   4   5   6   7   8   9   10  11  12
e|7---5p--0---------------7---5p--0---------------|7---5p--0---------------7---5p--0---------------|
B|------------7---5p------------------7---5p------|------------7---5p------------------7---5p------|
G|------------------------------------------------|------------------------------------------------|
D|------------------------------------------------|------------------------------------------------|
A|------------------------------------------------|------------------------------------------------|
D|0-------0-------0-------0-------0-------0-------|0-------0-------0-------0-------0-------0-------|

  1   2   3   4   5   6   7   8   9   10  11  12   1   2   3   4   5   6   7   8   9   10  11  12
e|7---5p--0---------------7---5p--0---------------|7---5p--0---------------7---5p--0---------------|
B|------------7---5p------------------7---5p------|------------7---5p------------------7---5p------|
G|------------------------------------------------|------------------------------------------------|
D|----------------------------------------0-------|0-------0-------0-------0-------0-------0-------|
A|------------------------0-----------------------|------------------------------------------------|
D|0-------0-------0-------------------------------|------------------------------------------------|

  1   2   3   4   5   6   7   8   9   10  11  12   1   2   3   4   5   6   7   8   9   10  11  12
e|7---5p--0---------------7---5p--0---------------|7---5p--0---------------7---5p--0---------------|
B|------------7---5p------------------7---5p------|------------7---5p------------------7---5p------|
G|------------------------------------------------|------------------------------------------------|
D|0-------0-------0-------0-------0-------0-------|0-------0-------0-------0-------0-------0-------|
A|------------------------------------------------|------------------------------------------------|
D|------------------------------------------------|------------------------------------------------|

  1   2   3   4   5   6   7   8   9   10  11  12   1   2   3   4   5   6   7   8   9   10  11  12
e|7---5p--0---------------7---5p--0---------------|7---5p--0---------------7---5p--0---------------|
B|------------7---5p------------------7---5p------|------------7---5p------------------7---5p------|
G|------------------------------------------------|------------------------------------------------|
D|0-------0-------0-------0-------0-------0-------|0-------0-------0-------0-------0-------0-------|
A|------------------------------------------------|------------------------------------------------|
D|------------------------------------------------|------------------------------------------------|

  1   2   3   4   5   6   7   8   9   10  11  12   1   2   3   4   5   6   7   8   9   10  11  12
e|7---5p--0---------------7---5p--0---------------|7---5p--0---------------7---5p--0---------------|
B|------------7---5p------------------7---5p------|------------7---5p------------------7---5p------|
G|------------------------------------------------|------------------------------------------------|
D|0-------0-------0-------0-------0-------0-------|0-------0-------0-------0-------0-------0-------|
A|------------------------------------------------|------------------------------------------------|
D|------------------------------------------------|------------------------------------------------|

\\\\\\\\\\\\\\\\\\\\\\\\\\\\\\\\\\\\\\\\\\\\\\\\\\\\\\\\\\\\\\\\\\\\\\\\\\\\\\\\\\\\\\\\\\\\\\\\\\\\

Final Verse: 
(Idle as a wave...)

  1   2   3   4   5   6   7   8   9   10  11  12   1   2   3   4   5   6   7   8   9   10  11  12
e|------------------------------------------------|-------------------------------(0)--------------|
B|-------(0)---------(0)---------------------(0)--|-------(0)---------(0)--------------------------|
G|---(0)----------0-----------0-------------------|---(0)----------0-----------0--------------(0)--|
D|------------------------4-------2---0p----------|------------------------4-------2---0p----------|
A|------------2---------------------------2-------|------------2---------------------------0-------|
D|2-----------------------------------------------|2-----------------------------------------------|

  1   2   3   4   5   6   7   8   9   10  11  12   1   2   3   4   5   6   7   8   9   10  11  12
e|-----------------------(0)----------------------|-----------------------(0)----------------------|
B(0)-----------------(0)---------------------(0)--|-------------------(0)---------(0)---------(0)--|
G|---(0)---------(0)---------(0)---------(0)------|---(0)---------(0)---------(0)---------(0)------|
D|------------0-----------------------0-----------|------------0-----------------------------------|
A|--------0-2h--------------------2---------------|--------2---------------------------0-----------|
D|5-----------------------5-----------------------|5-----------------------5-----------------------|
         |--3--|

  1   2   3   4   5   6   7   8   9   10  11  12   1   2   3   4   5   6   7   8   9   10  11  12
e|------------------------------------------------|-------------------------------(0)--------------|
B|-------(0)---------(0)---------------------(0)--|-------(0)---------(0)---------------------(0)--|
G|---(0)----------0-----------0-------------------|---(0)----------0----------------------(0)------|
D|------------------------4-------2---0p----------|------------------------2---0p------------------|
A|------------2---------------------------2-------|------------2-------------------2---0-----------|
D|2-----------------------------------------------|2-----------------------------------------------|

  1   2   3   4   5   6   7   8   9   10  11  12   1   2   3   4   5   6   7   8   9   10  11  12
e|-----------------------(0)----------------------|-----------------------(0)----------------------|
B(0)-----------------(0)---------------------(0)--|-------------------(0)---------(0)---------(0)--|
G|---(0)---------(0)---------(0)---------(0)------|---(0)---------(0)---------(0)---------(0)------|
D|------------0-----------------------0-----------|------------0-----------------------------------|
A|--------0-2h--------------------2---------------|--------2---------------------------2-----------|
D|5-----------------------5-----------------------|5-----------------------5-----------------------|
         |--3--|

  1   2   3   4   5   6   7   8   9   10  11  12   1   2   3   4   5   6   7   8   9   10  11  12
e|------------------------------------------------|-------------------------------(0)--------------|
B|-------(0)---------(0)---------------------(0)--|-------(0)---------(0)--------------------------|
G|---(0)----------0-----------0-------------------|---(0)----------0-----------0--------------(0)--|
D|------------------------4-------2---0p----------|------------------------4-------2---0p----------|
A|------------2---------------------------2-------|------------2---------------------------0-------|
D|2-----------------------------------------------|2-----------------------------------------------|

  1   2   3   4   5   6   7   8   9   10  11  12   1   2   3   4   5   6   7   8   9   10  11  12
e|------------------------------------------------|------------------------------------------------|
B|---(0)-------------(0)-----(0)-------------(0)--|---(0)-------------(0)-----(0)-------------(0)--|
G|---------------(0)------------------0-----------|---------------(0)---------------------(0)------|
D|------------2-----------------------------------|------------2-----------------------0-----------|
A|--------3-----------------------3---------------|--------3-----------------------3---------------|
D|3-----------------------3-----------------------|3-----------------------3-----------------------|

  1   2   3   4   5   6   7   8   9   10  11  12   1   2   3   4   5   6   7   8   9   10  11  12
e|------------------------------------------------|------------------------------------------------|
B|---(0)-------------(0)-----(0)-------------(0)--|---(0)-------------(0)-----(0)-------------(0)--|
G|---------------(0)---------------------(0)------|---------------(0)---------------------(0)------|
D|------------2-----------------------2-----------|------------2-----------------------2-----------|
A|--------3-----------------------3---------------|--------3-----------------------3---------------|
D|3-----------------------3-----------------------|3-----------------------3-----------------------|


  1   2   3   4   5   6   7   8   9   10  11  12
e|\5----------------------------------------------||
B|/3----------------------------------------------||
G|\0----------------------------------------------||
D|/4----------------------------------------------||
A|\5----------------------------------------------||
D|/0----------------------------------------------||


************************************

| (n)  Ghost note
| p    Pull-off
| h    Hammer-on
| \    Slide down
| /    Slide up

************************************

            
            
Suggest correction
Creating personal tab
Creating personal tab
You can edit any tab online and save it as your Personal.

You can edit, replace or remove any tab part or add personal notes – all changes will be seen only by you.

Personal tabs can be accessed anytime from any device, even offline.
Learn more »
comments
print report bad tab
4 comments total. Showing first comments.
0 reply
morellidegroot 10 Mar 10, 2016 12:13 AM

Holy crapola! thank you person!

+1 reply
leandromperez 10 Jul 22, 2016 01:25 PM

Awesome tab thanks!!!

0 reply
edsterz 33 Aug 13, 2017 05:40 PM

Album version uses capo on 3. His more recent live shows use capo on 2.

guest
You may want to rate the tab now too:
select rating
Wanna post a correction for this tab? Suggest correction