Oops, an error
Loading. Please wait.

Po Tebe chords

version 2
version 2

Whole song

352 views 3 this week
no commentswrite comment
1 2 3 4 5
3 more votes to show rating
add to favorites
×
Save as Personal and add changes to this tab that will be seen only by you. Learn more ›
×
You can save this tab as Personal to edit and correct it or add notes. All changes will be seen only by you. Learn more »
launch autoscroll
font size
0
reset
transpose
0
reset
display chords
guitar tuner
edit
Autoscroll
slow
fast
+/-
esc
set tempo
stop
Author
Difficulty
Strumming
There is no strumming pattern for this song yet. and get +5 IQ
[Verse]

      Bbm         Ab        Gb
Фрли поглед преку рамо ако одиш
      Bbm         Ab        Gb
Сакам да ти бидам патот кој те води
     Ebm        Db           Ab
Како суво лисје згази ме под себе
     Ebm        Db       F
Ништо не грубо ако е од тебе

     Bbm          Ab        Gb
Пушти насмев меѓу прамени од злато.
     Bbm          Ab        Gb
Еден поглед меѓу трепки, ама длабок
     Ebm        Db           Ab
Божем случајно забавено и филмски
     Ebm        Db           F
Само рака подај ми и тајно стисни

[Chorus]

     Bbm
По тебе
        Ebm               Db   Ab
Кај што газиш мојот поглед бакнува
      Db          Ab         Bbm
Мојто срце стапки ти одбројува
Ebm                 Db   
Гори надеж ден да дојде
Gb                       Ab
Твојот чекор кон мене да појде
      Bbm
По тебе...

[Verse]

     Bbm          Ab        Gb
Со тебе под еден чадор да се стиснам
     Bbm          Ab        Gb
Да сум среќен иако на пола киснам
     Ebm        Db           Ab
Како суво лисје згази ме под себе
     Ebm        Db           F
Ништо не грубо ако е од тебе

[Chorus]

     Bbm
По тебе
        Ebm               Db   Ab
Кај што газиш мојот поглед бакнува
      Db          Ab         Bbm
Мојто срце стапки ти одбројува
Ebm                 Db   
Гори надеж ден да дојде
Gb                       Ab
Твојот чекор кон мене да појде

[Bridge]

Gb
Крвта ми се бранува
Ebm
Твојот допир удира
    Cm                   F
Како струја тело ми оживува

Modulation Bbm-Bm

e|----------------------------------------------------------|
B|---------7-8-7~-----10p8p7--------------------------------|
G|----6-7-9------------------9-7-6---7-7s9-9-9--9--7-6--6---|
D|---9-----------------------------9-------------------9----|
A|--9-------------------------------------------------------|
E|----------------------------------------------------------|

e|----------------------------------------------------------|
B|---------------------------------7-8-10----10---8---7-----|
G|-6h7p6----------------------6-7-9--------6----6-------6-6-|
D|-------9--7-7~------4--5-7s9----------------------9-------|
A|-----------------7----------------------------------------|
E|----------------------------------------------------------|

e|----------------------------------------------------------|
B|---------------------------7-10-7-8--8-8--8-s8-7h8p7------|
G|---4-6-7~--------6h7---6h7---------------------------9-7--|
D|-4-------------9-----9------------------------------------|
A|--------------9-------------------------------------------|
E|-----------7h9--------------------------------------------|

e|----------------------------------------------------------|
B|-s8-8-8--10-10s12--10h12p10---8-7-7-----------------------|
G|------------------------------------9-9--7--7s9-----------|
D|----------------------------------------------------------|
A|----------------------------------------------------------|
E|----------------------------------------------------------|

[Chorus]

     Bm
По тебе
        Еm                D    A
Кај што газиш мојот поглед бакнува
      D           Ab         Bm
Мојто срце стапки ти одбројува
Em                  D   
Гори надеж ден да дојде
G                        A
Твојот чекор кон мене да појде (х2)

F# D F#
По тебе...
Bm  A  Bm
У-у-у јее...
Bm  F#    Bm
Јеихеј...

            
            
Suggest correction
Creating personal tab
Creating personal tab
You can edit any tab online and save it as your Personal.

You can edit, replace or remove any tab part or add personal notes – all changes will be seen only by you.

Personal tabs can be accessed anytime from any device, even offline.
Learn more »
Give kudos to tab author, rate the tab!
1 2 3 4 5
comments
print report bad tab
guest
You may want to rate the tab now too:
select rating
Wanna post a correction for this tab? Suggest correction