Oops, an error
Loading. Please wait.

Slusas Li chords

370 views 6 this week
no commentswrite comment
1 2 3 4 5
3 more votes to show rating
add to favorites
×
Save as Personal and add changes to this tab that will be seen only by you. Learn more ›
×
You can save this tab as Personal to edit and correct it or add notes. All changes will be seen only by you. Learn more »
launch autoscroll
font size
0
reset
transpose
0
reset
simplify chords
display chords
guitar tuner
edit
Autoscroll
slow
fast
+/-
esc
set tempo
stop
Author
Difficulty
Strumming
There is no strumming pattern for this song yet. and get +5 IQ
[Intro]

e|----------------------------------------------------------|
B|----------------------------------------------------------|
G|---7-7-7--7-7--7--7p6-6---9-9-9--9-9--9--9p7-7---10-10-10-|
D|----------------------------------------------------------|
A|----------------------------------------------------------|
E|----------------------------------------------------------|

e|----------------------------------------------------------|
B|----------------------------------------------------------|
G|-10-10--10-10s12-12--7-7-7--7-7-7s9--6------7-7-7--7-7--7-|
D|----------------------------------------------------------|
A|----------------------------------------------------------|
E|----------------------------------------------------------|

e|----------------------------------------------------------|
B|----------------------------------------------------------|
G|7p6-6---9-9-9--9-9--10--9p7-7---10-10-10--10-10--10-10s12-|
D|----------------------------------------------------------|
A|----------------------------------------------------------|
E|----------------------------------------------------------|

e|----------------------------------------------------------|
B|----------------------------------------------------------|
G|-12--7-7-7--7-7-7p9--6------------------------------------|
D|----------------------------------------------------------|
A|----------------------------------------------------------|
E|----------------------------------------------------------|

[Verse]

Dm
Слушаш ли?
          Gm
Ноќе кога светла изгаснат
C                 F
Болката срце како да ми сопрела
Gm
Заспиј моја љубена
Edim/G
Само не заборавај
Dm                    A
Парче сон за мене сочувај

Dm
Слушаш ли?
               Gm
Сe што не знам да ти искажам
C
Правам сe
        F
Само да не те повредам
Gm
Никогаш и навек твој
Edim/G                C
Доволно за сиот живот мој

[Chorus]

Dm          A
Усни да ти бакнувам
Gm          Dm
Нежно да те прегрнам
F              Gm
Да ти признаам љубена
Bb         A
Дека си ми сe
Dm          A
Срце не се лекува
Gm          Dm
ќе те сакам довека
F        Gm     Bb          A
Ниедно сеќавање немам без тебе

[Intro] x2

[Verse]

Dm
Слушаш ли?
               Gm
Сe што не знам да ти искажам
C
Правам сe
        F
Само да не те повредам
Gm
Никогаш и навек твој
Edim/G                C
Доволно за сиот живот мој

[Chorus]

Dm          A
Усни да ти бакнувам
Gm          Dm
Нежно да те прегрнам
F              Gm
Да ти признаам љубена
Bb         A
Дека си ми сe
Dm          A
Срце не се лекува
Gm          Dm
ќе те сакам довека
F        Gm     Bb          A
Ниедно сеќавање немам без тебе

            
            
Suggest correction
Creating personal tab
Creating personal tab
You can edit any tab online and save it as your Personal.

You can edit, replace or remove any tab part or add personal notes – all changes will be seen only by you.

Personal tabs can be accessed anytime from any device, even offline.
Learn more »
Give kudos to tab author, rate the tab!
1 2 3 4 5
comments
print report bad tab
guest
You may want to rate the tab now too:
select rating
Wanna post a correction for this tab? Suggest correction