Oops, an error
Loading. Please wait.

Malecka chords

version 2
version 2

Whole song

109 views 1 this week
no commentswrite comment
1 2 3 4 5
3 more votes to show rating
add to favorites
×
Save as Personal and add changes to this tab that will be seen only by you. Learn more ›
×
You can save this tab as Personal to edit and correct it or add notes. All changes will be seen only by you. Learn more »
launch autoscroll
font size
0
reset
transpose
0
reset
simplify chords
display chords
guitar tuner
edit
Autoscroll
slow
fast
+/-
esc
set tempo
stop
Author
Difficulty
Strumming
There is no strumming pattern for this song yet. and get +5 IQ
[Intro]

e|----------------------------------------------------------|
B|-------------------------------s8-7-----s8-7--------15-15-|
G|-7--7--7--7-9---7--7--7--7-9--------7--------7------------|
D|--------------9--------------9--------9--------9----------|
A|----------------------------------------------------------|
E|----------------------------------------------------------|

e|--------12-------------------12-----------------------12--|
B|-15--15----12--15-15--15--15----15--15b17~---------12-----|
G|---------------------------------------------14b16--------|
D|----------------------------------------------------------|
A|----------------------------------------------------------|
E|----------------------------------------------------------|

e|----------12----------------------------------------------|
B|-12-15b17----15-12----------------------------------------|
G|-------------------pb16r14p12----12-14--------------------|
D|------------------------------14--------------------------|
A|----------------------------------------------------------|
E|----------------------------------------------------------|

[Verse]

Am                     (G/B)    C
Адреса не знам ни број, каде си ти
Am                (G/B) C
А јас сум сеуште твој, каде си
C   (G/B)   Am
Љубов ме гризе, малечка
G
Вака заборавен
A
Откачен, отфрлен
D
Живеам од спомени

[Chorus]

C               D
Срцата полни, а утрото ѕвони
    Em            Bm
Со љубовен звук, еден за друг
C              D               E
И како празник секој почнуваше ден
C                  D
Бакнежи, прегратки, очи насмеани
    Em       Bm
Помниш ли сe што имавме
C              D           E
Премногу среќа за да ни потрае

[Intro]

[Verse]

Am                  (G/B)  C
Минливо и потрошно за тебе сум
Am                     (G/B)    C
Подстанар во срцето, на крај на ум
C   (G/B)   Am
Љубов ме гори, малечка
G
Признавам виновен
A
Повреден, победен
D
Живеам од спомени

[Chorus]

C               D
Срцата полни, а утрото ѕвони
    Em            Bm
Со љубовен звук, еден за друг
C              D               E
И како празник секој почнуваше ден
C                  D
Бакнежи, прегратки, очи насмеани
    Em       Bm
Помниш ли сe што имавме
C              D           E
Премногу среќа за да ни потрае (х2)

            
            
Suggest correction
Creating personal tab
Creating personal tab
You can edit any tab online and save it as your Personal.

You can edit, replace or remove any tab part or add personal notes – all changes will be seen only by you.

Personal tabs can be accessed anytime from any device, even offline.
Learn more »
Give kudos to tab author, rate the tab!
1 2 3 4 5
comments
print report bad tab
guest
You may want to rate the tab now too:
select rating
Wanna post a correction for this tab? Suggest correction