Oops, an error
Loading. Please wait.

La Locura Automática tab

514 views 6 this week
no commentswrite comment
1 2 3 4 5
3 more votes to show rating
add to favorites
×
Save as Personal and add changes to this tab that will be seen only by you. Learn more ›
×
You can save this tab as Personal to edit and correct it or add notes. All changes will be seen only by you. Learn more »
launch autoscroll
font size
0
reset
how to read this tab
guitar tuner
edit
Autoscroll
slow
fast
+/-
esc
set tempo
stop
Author
Difficulty
------------------------------------------------------------------
La Locura Automática – La Secta Allstar
------------------------------------------------------------------
Tabbed by: Galavizma15 
Tuning: EADGBE

Acordes: 

      Dm    G    C    Am   F

e|-----1----3----0----0----1----------------------|
B|-----3----3----1----1----1----------------------|
G|-----2----4----0----2----2----------------------|
D|-----0----5----2----2----3----------------------|
A|-----x----5----3----0----3----------------------|
E|-----x----x----x----x----x----------------------|


Intro:

                           Dm                  G

e|--8---8--7--7--5--5--3---1---1---1-1-1-1-(0)-3---3---3-3-3-3-|
B|-10--10--8--8--6--6--5---3---3---3-3-3-3—(0)-3---3---3-3-3-3-|
G|-------------------------2---2---2-2-2-2—(0)-4---4---4-4-4-4-|
D|-------------------------0---0---0-0-0-0—(0)-5---5---5-5-5-5-|
A|-------------------------x---x---x-x-x-x-----5---5---5-5-5-5-|
E|-------------------------x---x---x-x-x-x-----x---x---x-x-x-x-|


       C                   Am 

e|-(0)-0---0---0-0-0-0-(0)-0---0---0-0-0-0-(0)-|
B|-(0)-1---1---1-1-1-1—(0)-1---1---1-1-1-1-(0)-|
G|-(0)-0---0---0-0-0-0—(0)-2---2---2-2-2-2-(0)-|
D|-(0)-2---2---2-2-2-2—(0)-2---2---2-2-2-2-(0)-|
A|-----3---3---3-3-3-3—----0---0---0-0-0-0-----|
E|-----x---x---x-x-x-x—----x---x---x-x-x-x-----|
                                                    2x
                                          |-------------------|  
                       G                   C

e|--8---8--7--7--5--5--3---3---3-3-3-3-(0)-0---0---0-0-0-0----|
B|-10--10--8--8--6--6--3---3---3-3-3-3-(0)-1---1---1-1-1-1----|
G|---------------------4---4---4-4-4-4-(0)-0---0---0-0-0-0----|
D|---------------------5---5---5-5-5-5-(0)-2---2---2-2-2-2----|
A|---------------------5---5---5-5-5-5-----3---3---3-3-3-3----|
E|---------------------x---x---x-x-x-x-----x---x---x-x-x-x----|




Estas figuras se pueden incluir en algunas partes durante el verso: 

Entre los acordes de Dm y G 

e|-------------|
B|---6--5--3---|
G|---7--5--4---|
D|-------------|
A|-------------|
E|-------------|

e|-----------------|
B|---8---6---5-3---|
G|---9---7---5-4---|
D|-----------------|
A|-----------------|
E|-----------------|

Entre acordes C y Am


e|---------------------|
B|----6-6-5-5-3-3------|
G|---7-7-5-5-4-4-------|
D|---------------------|
A|---------------------|
E|---------------------|

Los demás son solo variaciones de estos, pueden buscar el sonido que más les guste.

Verso:
                        Dm               G                     
No castigues a este pobre corazón 
                 C                Am
aunque sé que me merezco lo peor 
            F           G       C
sabes que te hablo con toda sinceridad 
                  Dm                G
no recuerdes los momentos de pasión 
               C           Am
el vivir por una sol razón 
        F          G     C 
en el pasado todo fue felicidad 

            Dm           G
Si yo no te vuelvo a ver 
             C          Am
no sé lo que voy hacer 
       F             G      Dm  
estaré hundido en un mar de lagrimas 
            Dm           G
si yo no te vuelvo a ver 
             C          Am
yo me voy a enloquecer 
        F          G      C
es para mí la locura automática 

                       Dm            G
Hoy recuerdo el día en que te conocí 
                  C               Am         
te convertiste la luz de mi vivir 
        F        G     C
y te lo juro eso nunca cambiara 
               Dm                 G
si volvieras a pensar lo que paso 
                   C                    Am
si le dieras otro chance a nuestro amor 
      F        G    C
yo te daría de todo mi corazón 




            Dm           G
Si yo no te vuelvo a ver 
             C          Am
no sé lo que voy hacer 
       F             G      Dm   
estaré hundido en un mar de lagrimas 
            Dm           G
si yo no te vuelvo a ver 
             C          Am
yo me voy a enloquecer 
        F          G      C
es para mí la locura automática 



            Dm           G
Si yo no te vuelvo a ver 
             C          Am
no sé lo que voy hacer 
       F             G      Dm   
estaré hundido en un mar de lagrimas 
            Dm           G
si yo no te vuelvo a ver 
             C          Am
yo me voy a enloquecer 
        F          G      C
es para mí la locura automática 

        F          G      C
es para mí la locura automática 

        F          G~~~~~~~~~C~~~~~~~~~~~~~~~~~~~~~~x
es para mí la locura     automática 





************************************

| /   slide up
| \   slide down
| h   hammer-on
| p   pull-off
| ~   vibrato
| +   harmonic
| x   Mute note
| b   Bend
| pb  Pre-bend
| br  Bend release
| pbr Pre-bend release
| brb Bend release bend

************************************

            
            
Suggest correction
Creating personal tab
Creating personal tab
You can edit any tab online and save it as your Personal.

You can edit, replace or remove any tab part or add personal notes – all changes will be seen only by you.

Personal tabs can be accessed anytime from any device, even offline.
Learn more »
Give kudos to tab author, rate the tab!
1 2 3 4 5
comments
print report bad tab
guest
You may want to rate the tab now too:
select rating
Wanna post a correction for this tab? Suggest correction