Oops, an error
Loading. Please wait.

Make Rock Not War tab

43 views 1 this week
no commentswrite comment
1 2 3 4 5
3 more votes to show rating
add to favorites
×
Save as Personal and add changes to this tab that will be seen only by you. Learn more ›
×
You can save this tab as Personal to edit and correct it or add notes. All changes will be seen only by you. Learn more »
launch autoscroll
font size
0
reset
how to read this tab
guitar tuner
edit
Autoscroll
slow
fast
+/-
esc
set tempo
stop
Author
Difficulty
Tom: Ebm  
Nota: Podes tocar os acordes indicados como power chords apenas, com distorção.

Intro:

E|---------------------------------------------|
B|---------------------------------------------|
G|---------------------------------------------|
D|-------6------------6------------8--6-6------|
A|-6-8-9----9---6-8-9----9---6-8-9---------9-9-|
E|---------------------------------------------|

E|---------------------------------------------|
B|---------------------------------------------|
G|---------------------------------------------|
D|-------6------------6------------8--6-6------|
A|-6-8-9----9---6-8-9----9---6-8-9---------9-9-|
E|---------------------------------------------|

Ebm                       B
Moments of pleasure, in a world of pain.
Ebm                       B 
Working together, only to fight again.
      Abm                           Bbm                         B
If we wait for the world leaders to decide, who will die first?
         F#   B  Db
So don't wait no more!
              Ebm  Db  Ebm  B           Db
Tell me, make rock not war! What are we dying for?
Ebm  Db  Ebm  B      Db
Rock not war! Nobody wins!
Ebm  Db  Ebm  F#/F        F#          B
Rock not war! What are we trying for?
                                    B
And the fools rush in, don't they,
                        F# F#/F
For the grand beginning of the end!

Passagem:

E|---------------------------------------------|
B|---------------------------------------------|
G|---------------------------------------------|
D|-------6------------6------------8--6-6------|
A|-6-8-9----9---6-8-9----9---6-8-9---------9-9-|
E|---------------------------------------------|

Ebm                             B
Pulses are racing. You know the blade may fall.
Ebm                            B
Destinies tracing. I sing to a great star-fall.
        Abm                                     Bbm                B
And you know there's a real answer, but they've already been told.
                F#   B     Db
We've heard our lies being cold!

              Ebm  Db  Ebm  B           Db
Tell me, make rock not war! What are we dying for?
Ebm  Db  Ebm  B      Db
Rock not war! Nobody wins!
Ebm  Db  Ebm  F#/F        F#          B
Rock not war! What are we trying for?
                                   B
And the fools rush in, don't they,
                        F# F#/F                                 
For the grand beginning of the end!

Passagem:

E|---------------------------------------------|
B|---------------------------------------------|
G|--------------------------------------8------|
D|-------6------------6------------8-----------|
A|-6-8-9----9---6-8-9----9---6-8-9----9--------|
E|---------------------------------------------|

    (F# Abm)x2     (F# Abm)x2  (F# Abm)x2     B   Bbm
The hourglass turns over, and time is running low.
(F# Abm)x2         (F# Abm)x2
Will the sandman's pollen 
      (F# Abm)x2
bring sleep before we know?


SOLO: Não vou botar aqui, mas se não conseguirem tirar de ouvido improvisem ;)  *escala de Ebm

          Abm                                   Bbm                       B
Yeah, you know there's a real answer, and we've died more than been told.
         F#   B  Db
So don't wait no more!
              Ebm  Db  Ebm  B           Db
Tell me, make rock not war! What are we dying for?
Ebm  Db  Ebm  B      Db
Rock not war! Nobody wins!
Ebm  Db  Ebm  F#/F        F#          B
Rock not war! What are we trying for?
                                 B
And the fools rush in, don't we,
                        F# F#/F
For the grand beginning of the end!

E|---------------------------------------------|
B|---------------------------------------------|
G|---------------------------------------------|
D|-------6------------6------------8--6-6------|
A|-6-8-9----9---6-8-9----9---6-8-9---------9-9-|
E|---------------------------------------------|

Make rock not war!

E|---------------------------------------------|
B|---------------------------------------------|
G|---------------------------------------------|
D|-------6------------6------------8--6-6------|
A|-6-8-9----9---6-8-9----9---6-8-9---------9-9-|
E|---------------------------------------------|

Make rock not war!

E|---------------------------------------------|
B|---------------------------------------------|
G|---------------------------------------------|
D|-------6------------6------------8--6-6------|
A|-6-8-9----9---6-8-9----9---6-8-9---------9-9-|
E|---------------------------------------------|

Make rock not war!

E|---------------------------------------------|
B|---------------------------------------------|
G|---------------------------------------------|
D|-------6------------6------------8--6-6------|
A|-6-8-9----9---6-8-9----9---6-8-9---------9-9-|
E|---------------------------------------------|

Make rock not war!

E|---------------------------------------------|
B|---------------------------------------------|
G|---------------------------------------------|
D|-------6------------6------------8--6-6------|
A|-6-8-9----9---6-8-9----9---6-8-9---------9-9-|
E|---------------------------------------------|

...
Suggest correction
Creating personal tab
Creating personal tab
You can edit any tab online and save it as your Personal.

You can edit, replace or remove any tab part or add personal notes – all changes will be seen only by you.

Personal tabs can be accessed anytime from any device, even offline.
Learn more »
Give kudos to tab author, rate the tab!
1 2 3 4 5
comments
print report bad tab
guest
You may want to rate the tab now too:
select rating
Wanna post a correction for this tab? Suggest correction