Oops, an error
Loading. Please wait.

La Guerra Di Piero chords

version 3
version 3

Whole song

Interactive

409 views 3 this week
no commentswrite comment
1 2 3 4 5
2 more votes to show rating
add to favorites
×
Save as Personal and add changes to this tab that will be seen only by you. Learn more ›
×
You can save this tab as Personal to edit and correct it or add notes. All changes will be seen only by you. Learn more »
launch autoscroll
font size
0
reset
transpose
0
reset
display chords
guitar tuner
edit
Autoscroll
slow
fast
+/-
esc
set tempo
stop
Author
Difficulty
Strumming
There is no strumming pattern for this song yet. and get +5 IQ
This is played by plucking the root of the chord with your thumb
on the downbeat, and the chord using three fingers on the upbeat:

Questo viene interpretato pizzicando la fondamentale dell'accordo
con il pollice sul downbeat, e l'accordo con tre dita sul upbeat:

e|--------------------------------------|
B|-------------------------------1------|
G|---------1---------------------2------|
D|---------2---------------------2------|
A|---------2------------0---------------|
E|-0------------------------------------|

   E                   Am
  Dormi sepolto in un campo di grano....


  etc.


This is the [instrumental]:
Questa è la strumentale, indicato da [instrumental]:

e|--4s5-5---3-3---1p0--------4s5-5---3-3---1p0---1----1----------|
B|--------------------3------------------------3-----------------|
G|----------------------2----------------------------------------|
D|---------------------------------------------------------------|
A|-------------------------------------------------------------0-|
E|-------------------------------------------------------0h2h4---|


------------------------------------------------------------------------------------------



[Intro]

e|----5-5---3-3---0-0------0-------------------------------------|
B|--------------------3-------3-0--------------------------------|
G|---------------------------------2-0--2------------------------|
D|--------------------------------------2------------------------|
A|---------------------------------------------------------------|
E|---------------------------------------------------------------|


e|----5-5---3-3---0-0------0-------------------------------------|
B|--------------------3-------3-0-------1------------------------|
G|---------------------------------2-0--2------------------------|
D|----2-2---0-0-----------------0--2-0---------------------------|
A|----------------3-3-0----0--3---------0------------------------|
E|---------------------------------------------------------------|




 E                   Am
Dormi sepolto in un campo di grano,
 G                 C
non é la rosa, non é il tulipano
 E                    Am
che ti fan veglia dall'ombra dei fossi
 Dm              E     Am
ma sono mille papaveri rossi.

 E              Am
Lungo le sponde del mio torrente
 Dm                   Am
voglio che scendano i lucci argentati,
 G                 C
non più i cadaveri dei soldati
 E                  Am
portati in braccio dalla corrente.

  E            Am    
Così dicevi ed era d'Inverno 
   Dm              Am   
e come gli altri, verso l'inferno
 G                C   
te ne vai triste come chi deve
       E                  Am
ed il vento ti sputa in faccia la neve.

[Instrumental]

 E              Am
Fermati Piero, fermati adesso,
 G                      C
lascia che il vento ti passi un po' addosso,
     E                     Am
dei morti in battaglia ti porti la voce,
     Dm                    E         Am
chi diede la vita ebbe in cambio una croce.

    E                      Am
Ma tu non lo udisti ed il tempo passava
 Dm                Am
con le stagioni a passo di Giava
 G                 C
ed arrivasti a passar la frontiera
 E                Am
in un bel giorno di Primavera.

   E                     Am
E mentre marciavi con l'anima in spalle
  Dm                 Am
vedesti un uomo in fondo alla valle
      G                   C
che aveva il tuo stesso identico umore
 E                  Am
ma la divisa di un altro colore.

[Instrumental]

 E               Am  
Sparagli Piero, sparagli ora
   G             C
e dopo un colpo sparagli ancora,
 E                    Am
fino a che tu non lo vedrai esangue
 Dm                 E             Am
cadere in terra a coprire il suo sangue.

 E                 Am
E se gli sparo in fronte o nel cuore
 Dm                Am
soltanto il tempo avrà per morire,
       G              C
ma il tempo a me resterà per vedere,
 E                     Am
vedere gli occhi d'un uomo che muore.

   E              Am   
E mentre gli usi questa premura
 Dm                  Am 
quello si volta, ti vede, ha paura
 G              C
ed imbracciata l'artiglieria
 E               Am
non ti ricambia la cortesia.

[Instrumental]

 E                Am
Cadesti a terra, senza un lamento
 Dm                    G    C
e ti accorgesti in un solo momento
          E          Am
che il tempo non ti sarebbe bastato
   Dm                  E      Am
a chieder perdono per ogni peccato.
 E                 Am
Cadesti a terra, senza un lamento
 Dm                    G    C
e ti accorgesti in un solo momento
 E               Am
che la tua vita finiva quel giorno
   Dm              E      Am
e non ci sarebbe stato ritorno.

 E              Am
Ninetta mia, crepare di Maggio
 Dm             Am
ci vuole tanto, troppo coraggio.
 G              C
Ninetta bella diritto all'Inferno
 E                Am
avrei preferito andarci in Inverno.

   E                 Am
E mentre il grano ti stava a sentire
 Dm              Am
dentro le mani stringevi il fucile,
 G               C
dentro la bocca stringevi parole
 E                   Am
troppo gelate per sciogliersi al sole.

[Instrumental]

 E                   Am
Dormi sepolto in un campo di grano,
 G                 C
non é la rosa, non é il tulipano
 E                    Am
che ti fan veglia dall'ombra dei fossi
 Dm              E     Am
ma sono mille papaveri rossi.

            
            
Suggest correction
Creating personal tab
Creating personal tab
You can edit any tab online and save it as your Personal.

You can edit, replace or remove any tab part or add personal notes – all changes will be seen only by you.

Personal tabs can be accessed anytime from any device, even offline.
Learn more »
Give kudos to tab author, rate the tab!
1 2 3 4 5
comments
print report bad tab
guest
You may want to rate the tab now too:
select rating
Wanna post a correction for this tab? Suggest correction