Oops, an error
Loading. Please wait.

Tähdet Tähdet chords

3,601 views 42 this week
no commentswrite comment
1 2 3 4 5
1 last vote to show rating
add to favorites
×
Save as Personal and add changes to this tab that will be seen only by you. Learn more ›
×
You can save this tab as Personal to edit and correct it or add notes. All changes will be seen only by you. Learn more »
launch autoscroll
font size
0
reset
transpose
0
reset
simplify chords
display chords
guitar tuner
edit
Autoscroll
slow
fast
+/-
esc
set tempo
stop
Strumming
There is no strumming pattern for this song yet. and get +5 IQ
Intro:

| Dm | G | Bb | C |
| Dm | G | Bb | A |
| Dm | Dm | Dm | Dm |

 Verse:

| Dm | C | Dm | A | Bb | Gm | Bb | A |
| Dm | C | Dm | A | Bb | Gm | E | A | A |

 Chorus:

| Dm | Dm | Gm | Gm | A | A | Dm | G A |
| Dm | Dm | Gm | Gm | A | A | Dm | G | Bb | A |
| Dm | Dm | Dm | Dm |


Intro:
| Dm | G | Bb | C |
| Dm | G | Bb | A |
| Dm | Dm | Dm | Dm |

Verse:
Dm                C      Dm                 A
Saapunut luokseni yö on, silmäni luon taivaaseen
Bb             Gm                 Bb        A   
Tumma se katto tähtinä tuikkii on katseensa tutkimaton
Dm                 C      Dm               A
Suunnatton tähtien määrä, häipyen kaukaisuuteen
Bb                Gm             E                A
Niin pientä rataa maapallo makaa omaansa ain uudelleen


Chorus:
       Dm                          Gm
Tähdet tähdet, luoksemme tahtoisin pois
       A                            Dm  G  A 
Tähdet tähdet, silloin mun helpompi ois
       Dm                       Gm
Tähdet tähdet, enkö jo tulla mä saa
       A                         Dm
Tähdet tähdet, ikuisuuksiin ajan taa

Solo:
| Dm | G | Bb | A |
| Dm | Dm | Dm | Dm |


Verse:
Dm                C      Dm                 A
Turha on toiveita kantaa turha on haaveiden tie
Bb             Gm                 Bb        A  
Jos jotain antaa tai lemmenrantaa käy santaan se suoraan vain vie
Dm                 C      Dm               A
Aamuun yöntähdet häipyy idässä pian ruskottaa
Bb                Gm             E                A
Karvas jää taipuu pää alas taipuu päivä käy uus koittamaan


Chorus:
       Dm                          Gm
Tähdet tähdet, luoksemme tahtoisin pois
       A                            Dm  G   A 
Tähdet tähdet, silloin mun helpompi ois
       Dm                       Gm
Tähdet tähdet, enkö jo tulla mä saa
       A                         Dm   A
Tähdet tähdet, ikuisuuksiin ajan taa


Chorus:
      |Dm    |Dm    |Gm   | Gm  |
Tähdet tähdet
      |A     |A     |Dm   |G  A | 
Tähdet tähdet
      |Dm    |Dm    |Gm   | Gm  |
Tähdet tähdet
      |A     |A     |                       
Tähdet tähdet

Outro:
| Dm | G | Bb | C |
| Dm | G | Bb | A |
| Dm9

Guitars:

 Intro:

e|---------------------------------------------------------10-9--9p10--10-8--10-------------
H|------------------------------------------10-8--------11-----------------10------8-10-----
G|------------------------7-10-9-7-----7-10------10-9-10-------------------------10----10-7-
D|-------------7--------8----------10-------------------------------------------------------
A|--------8-10---10-8-7---------------------------------------------------------------------
E|-10--10-----------------------------------------------------------------------------------



 1:14

e|-------------------------------9~~2---9/10--10p12-12r10-8-10---10-12-13-15-17-
H|---------------------------------------------------------------10-------------
G|------------------------7-10-9------------------------------------------------
D|-------------7--------8-------------------------------------------------------
A|--------8-10---10-8-7---------------------------------------------------------
E|-10--10-----------------------------------------------------------------------

 1:29

e|-8/10-10-10/8-8-
H|-8/10-10-10/8-8-

            
            
Suggest correction
Creating personal tab
Creating personal tab
You can edit any tab online and save it as your Personal.

You can edit, replace or remove any tab part or add personal notes – all changes will be seen only by you.

Personal tabs can be accessed anytime from any device, even offline.
Learn more »
Give kudos to tab author, rate the tab!
1 2 3 4 5
comments
print report bad tab
guest
You may want to rate the tab now too:
select rating
Wanna post a correction for this tab? Suggest correction