Oops, an error
Loading. Please wait.

Mies Eikä Poika Enää tab

322 views 3 this week
no commentswrite comment
1 2 3 4 5
3 more votes to show rating
add to favorites
×
Save as Personal and add changes to this tab that will be seen only by you. Learn more ›
×
You can save this tab as Personal to edit and correct it or add notes. All changes will be seen only by you. Learn more »
launch autoscroll
font size
0
reset
how to read this tab
guitar tuner
edit
Autoscroll
slow
fast
+/-
esc
set tempo
stop
[Intro]
   Em                          C
e|----------------------------------------|
B|------0---1--0------------1----------1--|
G|----0---0--0---0------0----------0------| X 3
D|--2-----------------4---4------2---2----|
A|------------------5----------3----------|
E|----------------------------------------|

[Verse 1]
   Em                                 C
e|------------------------------------0--|
B|------0-----------------------------1--|
G|----0---0---------------------------0--|
D|--2---------------------------------2--|
A|------------------------------------3--|
E|---------------------------------------|
   Kivisestä maasta tuule joka päivä

   Em                                     C
e|--------------------------------------------------|
B|------0-----------------------------------------1-|
G|----0---0-----------------------------------0-----|
D|--2---------------------------------------2---2---|
A|----------------------------------------3---------|
E|--------------------------------------------------|
   Sama matka kouluun pyörällä tai ilman

   Em                                 C
e|-----------------------------------------------|
B|------0-----------------------1--------------1-|
G|----0---0-----------------0--------------0-----|
D|--2---------------------4---4----------2---2---|
A|----------------------5--------------3---------|
E|-----------------------------------------------|
   Pakkasrajan jälkeen isän oli pakko

   Em                                       C
e|----------------------------------------------------|
B|------0-------------------------------------------1-|
G|----0---0-------------------------------------0-----|
D|--2-----------------------------------------2---2---|
A|------------------------------------------3---------|
E|----------------------------------------------------|
   Pihapiirin lapset laittaa samaan autoon

[Solo]
   Em                  C    Em                 C
e|--------------------------------------------------|
B|--------------------------------------------------|
G|--------------------------------------------------|
D|--4--4/10-9--4--5-7--5~~---4-4/10-9--4--5--7------|
A|---------------------------------------------7~~--|
E|--------------------------------------------------|

[Chorus]
          Em
Nyt puhuu mies
C
Mies eikä poika enää
          Em
Nyt puhuu mies
C
Mies eikä poika enää
          Em     C
Nyt puhuu mies

[Verse 2]
   Em                                   C
e|-------------------------------------------------|
B|------0---------------------------------------1--|
G|----0---0---------------------------------0------|   X 4
D|--2-------------------------------------2---2----|
A|--------------------------------------3----------|
E|-------------------------------------------------|
   Merikadun kenttä jäätyy ennen muita.
   Pukuhuoneen penkit jykevästä puusta.
   Tupakalle hintaa tuli alle kympin.
   Kotiintuloaika aina liian varhain.

[Chorus]
            Em                          C
e|------------------------------------------------|
B|--------------0---1--0------------1----------1--|
G|------------0---0--0---0------0----------0------| X 2
D|----------2-----------------4---4------2---2----|
A|--------------------------5----------3----------|
E|------------------------------------------------|
  Nyt puhuu mies                       Mies eikä poika enää

            Em                          C
e|------------------------------------------------|
B|--------------0---1--0------------1----------1--|
G|------------0---0--0---0------0----------0------|
D|----------2-----------------4---4------2---2----|
A|--------------------------5----------3----------|
E|------------------------------------------------|
  Nyt puhuu mies


[Bridge]
C5                     A5
Oletko vielä hengissä? Missä sä oot ja mitä teet?
E5       D5            C5
  Oletko yhtä kaunis kuin sä olit, vai onko
                      E5      D5            C5
kadonneet? Kiharat olkapäiltäsi. Ja pienet silkki-
                    A5     E5      C
käsineet. Oletko vielä hengissä?

[Chorus]
          Em

C
Mies eikä poika enää
          Em

C
Mies eikä poika enää
          Em

C
Mies eikä poika enää

[Outro]
   Em                  C                    Em                 C
e|------------------------------------------------------------------|
B|------------------------------------------------------------------|
G|------------------------------------------------------------------|
D|--4--4/10-9--4--5-7--5~~-------------------4-4/10-9--4--5--7------|  (fade out)
A|-------------------------------------------------------------7~~--|
E|------------------------------------------------------------------|
                       Mies eikä poika enää                    Mies eikä poika enää

            
            
Suggest correction
Creating personal tab
Creating personal tab
You can edit any tab online and save it as your Personal.

You can edit, replace or remove any tab part or add personal notes – all changes will be seen only by you.

Personal tabs can be accessed anytime from any device, even offline.
Learn more »
Give kudos to tab author, rate the tab!
1 2 3 4 5
comments
print report bad tab
guest
You may want to rate the tab now too:
select rating
Wanna post a correction for this tab? Suggest correction