Oops, an error
Loading. Please wait.

Mies Jonka Ympäriltä Tuolit Viedään chords

1,738 views 6 this week
no commentswrite comment
1 2 3 4 5
x 3
add to favorites
×
Save as Personal and add changes to this tab that will be seen only by you. Learn more ›
×
You can save this tab as Personal to edit and correct it or add notes. All changes will be seen only by you. Learn more »
launch autoscroll
font size
0
reset
transpose
0
reset
display chords
guitar tuner
edit
Autoscroll
slow
fast
+/-
esc
set tempo
stop
Strumming
There is no strumming pattern for this song yet. and get +5 IQ
[Intro]
  C#m      B        A       B          C#m
e|------------------------------------------|
B|------------------------------------------|
G|--------------------------2--1------------|
D|-----2-4------2-4-----2-4-------4--2------|  (x2)
A|-4-------4--------4-------------------4---|
E|------------------------------------------|

[Verse]
    C#m    B      A      B
e|--4-4----2-2----0-0----2-2--|
B|--5-5----4-4----2-2----4-4--|
G|--6-6----4-4----2-2----4-4--|
D|----------------------------|
A|----------------------------|
E|----------------------------|

[Verse 1]
C#m                             B
Se ei kätellessä katso silmiin, jos se puhuu niin se puhuu hiljaa
A                                     B
Sil on hiukset niin kuin heinäpelto, talven jälkeen huhtikuussa
C#m                                   B
    Jos se kävelee sen jalat liikkuu, ja sen kädet menee takin taskuun
A                             B
Siel on tupakat ja tikkuaski, lompakko on housun taskussa

[Chorus]
C#m                                   B
Mies jonka ympäriltä tuolit viedään, mies jonka etunimi mieleen ei jää
A                                    B
Mies jonka kasvot ovat raastinrautaa hioneet
C#m                                  B
Mies jonka ympäriltä tuolit viedään, mies jonka sukunimi mieleen ei jää
A                                       B
Mies jonka talossa on suorat seinät ja tapetit

[Solo]
  C#m      B        A       B          C#m
e|------------------------------------------|
B|------------------------------------------|
G|--------------------------2--1------------|
D|-----2-4------2-4-----2-4-------4--2------|
A|-4-------4--------4-------------------4---|
E|------------------------------------------|

[Verse 2]
C#m                             B
Se ei hymyile ja jos se nauraa, se on useimmiten väärä paikka
A                            B
Se on elokuvan loppukohtaus, sankari saa vihdoin naisen
C#m                             B
Tälle naiset eivät juuri niiaa, mies ei leikittele eikä riiaa
A                              B
Se on vähän että yksi tanssi, sitten ehkä vielä saatille

[Chorus]
C#m                                   B
Mies jonka ympäriltä tuolit viedään, mies jonka etunimi mieleen ei jää
A                                    B
Mies jonka kasvot ovat raastinrautaa hioneet
C#m                                  B
Mies jonka ympäriltä tuolit viedään, mies jonka sukunimi mieleen ei jää
A                                       B       C#m
Mies jonka talossa on suorat seinät ja tapetit

[Bridge]
D                             C#m                  F#m
Jos se itkee sen silmät kostuu   ja kädet nyrkkiin puristuu
D                                C#m                  F#m
Jos se puhuu niin se puhuu hiljaa   ja katse hiekkaan sekoittuu

C#m (damped)

[Chorus]
A                                    E                               
Mies jonka ympäriltä tuolit viedään, mies jonka etunimi mieleen ei jää
F#m                                  B 
Mies jonka kasvot ovat raastinrautaa hioneet
A                                    E                             F#m  B
Mies jonka ympäriltä tuolit viedään, mies jonka sukunimi mieleen ei jää
A                                 E  F#m                                    B
Mies jonka ympäriltä tuolit viedään, mies jonka talossa on suorat seinät ja tapetit
C#m
Mies jonka ympäriltä tuolit viedään

[Outro]
  C#m      B        A       B          C#m       
e|------------------------------------------|
B|------------------------------------------|
G|--------------------------2--1------------| 
D|-----2-4------2-4-----2-4-------4--2------|  (x2)
A|-4-------4--------4-------------------4---|
E|------------------------------------------|

            
            
Suggest correction
Creating personal tab
Creating personal tab
You can edit any tab online and save it as your Personal.

You can edit, replace or remove any tab part or add personal notes – all changes will be seen only by you.

Personal tabs can be accessed anytime from any device, even offline.
Learn more »
Give kudos to tab author, rate the tab!
1 2 3 4 5
comments
print report bad tab
guest
You may want to rate the tab now too:
select rating
Wanna post a correction for this tab? Suggest correction