Oops, an error
Loading. Please wait.

リサフランク420 現代のコンピュー intro tab

version 1
version 1

Intro

Whole song

Interactive

24,799 views 201 this week
9 commentsread comments
1 2 3 4 5
x 23
add to favorites
×
Save as Personal and add changes to this tab that will be seen only by you. Learn more ›
×
You can save this tab as Personal to edit and correct it or add notes. All changes will be seen only by you. Learn more »
launch autoscroll
font size
0
reset
how to read this tab
guitar tuner
edit
Autoscroll
slow
fast
+/-
esc
set tempo
stop
MACINTOSH PLUS - FLORAL SHOPPE
Standard tuning: E A D G B E (444Hz)
Tempo:87 bpm
Didn't see the tab version of this. Here it is. Done by ear too so it might not be perfect.
(Also my first tab)

[Intro]

e|-------14-14-----14-|12--------------------|------------------|
B|12------------------|---15-14-14-----15-12-|------------14-10-|
G|--------------------|----------------------|------------------|
D|--------------------|----------------------|------------------|
A|--------------------|----------------------|------------------|
E|--------------------|----------------------|------------------|

e|-------------------|--14-------14-12----|-------------14-14---|
B|--------12-15-15---|-----------------15-|14-14-----12---------|
G|-------------------|--------------------|---------------------|
D|-------------------|--------------------|---------------------|
A|-------------------|--------------------|---------------------|
E|-------------------|--------------------|---------------------|

E|-----------------|-------------------|
B|-----------------|-------------------|
G|--------------12-|12---14-14---------|
D|--------------12-|12---14-14---------|
A|-----------------|-------------------|

Basically this throughout

            
            
Suggest correction
Creating personal tab
Creating personal tab
You can edit any tab online and save it as your Personal.

You can edit, replace or remove any tab part or add personal notes – all changes will be seen only by you.

Personal tabs can be accessed anytime from any device, even offline.
Learn more »
comments
print report bad tab
9 comments total. Showing first comments.
+6 reply
nickzieba2 78 Feb 19, 2016 03:13 AM

A E S T H E T I C
G O O D J O B

+3 reply
noided123 69 Feb 29, 2016 11:04 AM

t  h  a  n  k  s    m  a  n

+2 reply
loughlainmcp 30 Mar 07, 2016 12:47 AM

I think that the 14-10 bit should be 19-17 on the high e string

guest
You may want to rate the tab now too:
select rating
Wanna post a correction for this tab? Suggest correction