Oops, an error
Loading. Please wait.

Non-Zero Possibility tab

67 views 1 this week
no commentswrite comment
1 2 3 4 5
3 more votes to show rating
add to favorites
×
Save as Personal and add changes to this tab that will be seen only by you. Learn more ›
×
You can save this tab as Personal to edit and correct it or add notes. All changes will be seen only by you. Learn more »
launch autoscroll
font size
0
reset
how to read this tab
guitar tuner
edit
Autoscroll
slow
fast
+/-
esc
set tempo
stop
At the Drive In-Non Zero Possibility

I saw some tabs for this song, but they didn't have all the parts,
so I'm gonna transcribe the guitar parts + piano parts for the guitar.

Gtr.1-electric
Gtr.2-transcribed piano parts
Gtr.3-acoustic

Intro:

Gtr.2

e|--------15-----------14----------12---------------|
B|---------------------------------------------15---|
G|-12-14--------12-14--------12-14-------12-14------|
D|--------------------------------------------------|
A|--------------------------------------------------|
D|--------------------------------------------------|

|-------15---15-14-12--------14---15-14-12--------12--------------|
|-------------------------------------------------------------15--|
|-12-14---------------12--14----------------12-14-------12-14-----|
|-----------------------------------------------------------------|
|-----------------------------------------------------------------|
|-----------------------------------------------------------------|



Verse:

Gtr.1-distant and quiet

|-12-------------12----12-------------12----12-------------12----12-------------12--|
|----12----15-------------12----15-------------12----15-------------12----15--------|
|-------11----15-------------11----15-------------11----15-------------11----15-----|x4
|-----------------------------------------------------------------------------------|
|-----------------------------------------------------------------------------------|
|-----------------------------------------------------------------------------------|

Gtr.2 

|-----------------------------------------------------------------------------------|
|----8---7----8---7-------8---7----8---7-------8---7----8---7----8---7----8-10-8----|
|------7--------7-----------7--------7-----------7--------7--------7-------------7--|x3
|-----------------------------------------------------------------------------------|
|-----------------------------------------------------------------------------------|
|-9~-------------------7~-------------------5~-----------------0~-------------------|

|--------------------------------------------------------------------------|
|----8---7----8---7-------8---7----8---7-------8---7----8---7--------8-10--|
|------7--------7-----------7--------7-----------7--------7----------------|
|--------------------------------------------------------------------------|
|--------------------------------------------------------------------------|
|-9~-------------------7~-------------------5~-----------------0~----------|



Chorus:

Gtr.1-this part probably isn't correct, it's played in the background,
with some kind of an effect

|-12~----------------------------------12~----------------------|
|--------13~-------13~------------------------13~--------10~----|
|------------13~-------10~------------------------13~--------9~-|
|-----------------------------12~-------------------------------|
|---------------------------------------------------------------|
|---------------------------------------------------------------|


Gtr.2-the piano plays the intro part + these chords

|--------15-----------14----------12---------------|
|---------------------------------------------15---|
|-12-14--------12-14--------12-14-------12-14------|
|--------------------------------------------------|
|--------------------------------------------------|
|--------------------------------------------------|

Am E Dm C Bm


Gtr.3-just play this over and over again

|-----------------|
|-----------------|
|-------9-------9-|
|----10------10---|
|-12------12------|
|-----------------|


Back to verse: 

Again Gtr.1:

|-12-------------12----12-------------12----12-------------12----12-------------12--|
|----12----15-------------12----15-------------12----15-------------12----15--------|
|-------11----15-------------11----15-------------11----15-------------11----15-----|x4
|-----------------------------------------------------------------------------------|
|-----------------------------------------------------------------------------------|
|-----------------------------------------------------------------------------------|

Gtr.2 

|-----------------------------------------------------------------------------------|
|----8---7----8---7-------8---7----8---7-------8---7----8---7----8---7----8-10-8----|
|------7--------7-----------7--------7-----------7--------7--------7-------------7--|x3
|-----------------------------------------------------------------------------------|
|-----------------------------------------------------------------------------------|
|-9~-------------------7~-------------------5~-----------------0~-------------------|


|--------------------------------------------------------------------------|
|----8---7----8---7-------8---7----8---7-------8---7----8---7--------8-10--|
|------7--------7-----------7--------7-----------7--------7----------------|
|--------------------------------------------------------------------------|
|--------------------------------------------------------------------------|
|-9~-------------------7~-------------------5~-----------------0~----------|


Chorus/outro:

Gtr.1

First:

|-12~--------------------------------|
|--------13~--------13~---------12~--|
|------------13~-----------9~--------|x2
|------------------------------------|
|------------------------------------|
|------------------------------------|

|-12~----15~-14~------------------------12~----15~-14~-------12~------------------------|
|-------------------12~----9~---10~---------------------12~--------10~-hold-til-the-end-|
|---------------------------------------------------------------------------------------|
|---------------------------------------------------------------------------------------|
|---------------------------------------------------------------------------------------|
|---------------------------------------------------------------------------------------|

Gtr.2

Am E Dm C Bm - repeat chords til the end,
the only change in the piano is later

|--------15-----------14----------12---------------|
|---------------------------------------------15---|
|-12-14--------12-14--------12-14-------12-14------|x2
|--------------------------------------------------|
|--------------------------------------------------|
|--------------------------------------------------|

|--------15-----------14----------12--------------------|
|-------------------------------------------------------|
|-12-14--------12-14--------12-14-------9-10-12-10-9----|x2
|----------------------------------------------------12-|
|-------------------------------------------------------|
|-------------------------------------------------------|

|-----------------|
|-----------------|
|-9-10-12-10-9----|
|--------------12-|
|-----------------|
|-----------------|


Gtr.3-repeat as long as necessary

|-----------------|
|-----------------|
|-------9-------9-|
|----10------10---|
|-12------12------|
|-----------------|


That's it. I tried the best I can, so I hope it helps.
I'm gonna do some more Antemasque, ATDI, TMV, Dot Hacker and Hail The Sun tabs
during the holidays so stay updated!

            
            
Suggest correction
Creating personal tab
Creating personal tab
You can edit any tab online and save it as your Personal.

You can edit, replace or remove any tab part or add personal notes – all changes will be seen only by you.

Personal tabs can be accessed anytime from any device, even offline.
Learn more »
Give kudos to tab author, rate the tab!
1 2 3 4 5
comments
print report bad tab
guest
You may want to rate the tab now too:
select rating
Wanna post a correction for this tab? Suggest correction