Oops, an error
Loading. Please wait.

Wild Side tab

version 5
version 5

Whole song

Interactive

487 views 1 this week
no commentswrite comment
1 2 3 4 5
3 more votes to show rating
add to favorites
×
Save as Personal and add changes to this tab that will be seen only by you. Learn more ›
×
You can save this tab as Personal to edit and correct it or add notes. All changes will be seen only by you. Learn more »
launch autoscroll
font size
0
reset
how to read this tab
guitar tuner
edit
Autoscroll
slow
fast
+/-
esc
set tempo
stop
Author
Difficulty
About this tab version
This is played in an easier tuning, and closer to standard so guitarists with lighter strings can still play this song. Was this info helpful? Yes No
Please read! This tab is not quite in standard tuning. The tuning is
(D G D G B e). I have not seen a tuning similar to this, so I named
it Drop D/G (as E drops to D and A drops to G). This is technically
the incorrect way to play this song. Motley Crue has always tuned to
D Standard (D G C F A d), but this version of the tab is for those
using a lighter string than needed for a full step detuning by allowing
every sting to remain standard, except for two. Rock on. \m/

                        Riff 1                                         
D|-----------------|------------------------------|-------------------------|
A|-----------------|------------------------------|----------------6--6—-5--|
F|-----------------|---3---3-2-----3-----2----3/5-|---3---3-2------5--5--5--|
G|-----------------|---3---3-2-----3-----2—---3/5-|---3---3-2------5--5--5--|
C|-----0*----------|-0---------0-0---0-0---0-0----|-0---------0-0-----------|
D|-----------------|------------------------------|-------------------------|
    *prebend with bar
                                   
|--------------------------------|
|--(5)--5-------6p5--------------|
|--(5)-----5---------5-----------|
|--(5)---------------------------|
|--------------------------------|
|--------------------------------|


Riff 1 x4



[   Riff 2      (32 sixteenth notes)                                  
|--------------------------------|---------------------------------|
|--------------------------------|---------------------------------|
|--------------------------------|---------------------------------|
|--------------------------------|---------------------------------|
|0-0-0-0-0-0-0-0-0-0-0-0-0-0-0-0-|-0-0-0-0-0-0-0-0-0-0-0-0-0-0-0-0-|
|--------------------------------|---------------------------------|

Riff 2 x1

Verse:
     verse                                                                     
|--------|---------|---------|---------|---------|---------|----------------|
|--------|---------|---------|---------|---------|---------|-----6p5---6p5--|
|-7---5--|--7---7--|--5---3--|--7---5--|--7---5--|--5---3--|-7------5-----5-|
|-5---5--|--5---5--|--3---3--|--5---5--|--5---5--|--3---3--|-5--------------|
|--------|---------|---------|---------|---------|---------|----------------|
|--------|---------|---------|---------|---------|---------|----------------|


Verse x1
Riff 1(Chorus)x2
Riff 2 x1
Verse  x1
Riff 1(Chorus) x1 then Riff 3 (x1)

   Riff 3                                                                       
|------------------------------|-------------------------|------------------|
|------------------------------|----------------6--6--5--|-(5)------6--6--5-|
|---3---3-2-----3-----3----3/5-|---3---3-2------5--5--5--|-(5)------5--5--5-|
|---3---3-2-----3-----3—---3/5-|---3---3-2------5--5--5--|-(5)------5--5--5-|
|-0---------0-0---0-0---0-0----|-0---------0-0-----------|------------------|
|------------------------------|-------------------------|------------------|
                                
                                   
|--------------|-----------------|
|-(5)----------|-----------------|
|-(5)-----3----|--(3)------------|
|-(5)-----3----|--(3)------------|
|---------3----|--(3)------------|
|--------------|-----------------|


    Bridge                                                                   
|----------------|-------------------|------------------|-----------------|
|----------------|-------------------|------------------|-----------------|
|------3--5------|--------5--3-------|--------3--0------|-------3--0------|
|------3--5------|--------5—-3-------|--------3--0------|-------3--0------|
|--0----------0--|--0-0-----------0--|--0-0----------0--|--0-0---------0--|
|----------------|-------------------|------------------|-----------------|

Bridge x3

 Riff 4                                                              
|---------------|----------------|--------------|-------------------------|
|---------------|----------------|--------------|-------------------------|
|------3--5-----|-(5)-----5--3---|-(3)---3--0---|-(0)---------------------|
|------3--5-----|-(5)-----5--3---|-(3)---3--0---|-(0)---------------------|
|--0------------|------0---------|-----0----0---|-(0)---------------------|
|---------------|----------------|--------------|-------------------------|

Riff 4 x1
Riff 1 x4
Riff 2 x1
Verse  x1
Riff 1 x2

       Riff 5                                                                
|--------------------------------|-------------------|--------------------|
|--------------------------------|----------6--6--5--|-(5)--5-----6p5-----|
|--------------------------------|----------5--5--5--|-(5)-----5------5---|
|--------------------------------|----------5--5--5--|-(5)----------------|
|0-0-0-0-0-0-0-0-0-0-0-0-0-0-0-0-|-0-0-0-0-----------|--------------------|
|--------------------------------|-------------------|--------------------|

Riff 5 x2

  Riff 6                        
|------------------------------|
|------------------------------|
|---3---3-2-----3-----2----3/5-|
|---3---3-2-----3-----2—---3/5-|
|-0---------0-0---0-0---0-0----|
|------------------------------|

Riff 6 x3

       Riff 7                                                            
|-----------------------------|------------------|-------------|----------|
|--------------------6--6--5--|-(5)-----6--6--5--|-(5)---------|----------|
|----3---3-2---------5--5--5--|-(5)-----5--5--5--|-(5)---3-----|-(3)------|
|----3---3-2---------5--5--5--|-(5)-----5--5--5--|-(5)---3-----|-(3)------|
|-0-----------0--0------------|------------------|-------3-----|-(3)------|
|-----------------------------|------------------|-------------|----------|

Riff 7 x1
Bridge x4
Bridge x5 fade out

            
            
Suggest correction
Creating personal tab
Creating personal tab
You can edit any tab online and save it as your Personal.

You can edit, replace or remove any tab part or add personal notes – all changes will be seen only by you.

Personal tabs can be accessed anytime from any device, even offline.
Learn more »
Give kudos to tab author, rate the tab!
1 2 3 4 5
comments
print report bad tab
guest
You may want to rate the tab now too:
select rating
Wanna post a correction for this tab? Suggest correction