Oops, an error
Loading. Please wait.
We have an official Kickstart My Heart tab made by UG professional guitarists. Check out the tab »
×

Kickstart My Heart bass

version 3
version 3

Whole song

  • The current version is one large piece text that i... Show more

Interactive

469 views 6 this week
no commentswrite comment
1 2 3 4 5
2 more votes to show rating
add to favorites
×
Save as Personal and add changes to this tab that will be seen only by you. Learn more ›
×
You can save this tab as Personal to edit and correct it or add notes. All changes will be seen only by you. Learn more »
launch autoscroll
font size
0
reset
guitar tuner
backing track
0:00
0:00
edit
Autoscroll
slow
fast
+/-
esc
set tempo
stop
About this tab version
The current version is one large piece text that is not well ordered and hard to read, on top of that it is missing certain parts or wrong in certain places. Was this info helpful? Yes No
Motley Crue: Kickstart My Heart

Guitar Intro

Intro
F|----------------------------------------------|
C|----------------------------------------------|
G|----------------------------------------------|
D|-5----5----5----5---5----5---5--5--5--5--3~-4-|  

F|---------------------------------------------|
C|---------------------------------------------|
G|---------------------------------------------|
D|-5~--5--5--5--5--5--5--3~--3--3--3--3--3--3--|

F|----------------------------------------------|
C|----------------------------------------------|
G|-5~--5--5--5--5--5--5--5--5--5--5--5--5--5--5-|
D|----------------------------------------------|

F|---------------------------------------------|
C|---------------------------------------------|
G|---------------------------------------------|
D|-5~--5--5--5--5--5--5--3~--3--3--3--3--3--3--|

F|----------------------------------------------|
C|----------------------------------------------|
G|-5~--5--5--5--5--5--5--5--5--------------0--3-|
D|-----------------------------0--2--3--4-------|    

F|---------------------------------------------|
C|---------------------------------------------|
G|---------------------------------------------|
D|-5~--5--5--5--5--5--5--3~--3--3--3--3--3--3--|    

F|----------------------------------------------|
C|----------------------------------------------|
G|-5~-------------------------------------------|
D|----------------------------------------3~--4-|
                                   
Verse
F|--------------------------------------------|
C|--------------------------------------------|
G|--------------------------------------------|
D|-5~--5--5--5--5--5--5--5--5--5--5--5--3~--4-|

F|--------------------------------------------|
C|--------------------------------------------|
G|------------------------------------------2-|
D|-5~--5--5--5--5--5--5--5--5--5--5--5--3~----|

F|-------------------------------------|
C|-------------------------------------|
G|-3~--3--3--3--3--3-------------------|
D|-------------------3~--3--3--3--3--3-|

F|-----------------------------------------------|
C|-----------------------------------------------|
G|-5~--5--5--5--5--5--5--5--5--5--5--5--5--------|
D|-----------------------------------------3~--4-|

F|--------------------------------------------|
C|--------------------------------------------|
G|--------------------------------------------|
D|-5~--5--5--5--5--5--5--5--5--5--5--5--3~--4-|

F|--------------------------------------------|
C|--------------------------------------------|
G|------------------------------------------2-|
D|-5~--5--5--5--5--5--5--5--5--5--5--5--3~----|

F|-------------------------------------|
C|-------------------------------------|
G|-3~--3--3--3--3--3-------------------|
D|-------------------3~--3--3--3--3--3-|

F|-----------------------------------------------|
C|-----------------------------------------------|
G|-5~--5--5--5--5--5--5--5--5--5--5--5--5--------|
D|-----------------------------------------3~--4-|

F|--------------------------------------------|
C|--------------------------------------------|
G|--------------------------------------------|
D|-----5~-------------------------------3~--4-|

F|--------------------------------------------|
C|--------------------------------------------|
G|--------------------------------------------|
D|-----5~-------------------------------------|

Chorus 1
F|---------------------------------------------|
C|---------------------------------------------|
G|---------------------------------------------|
D|-5~--5--5--5--5--5--5--3~--3--3--3--3--3--3--|

F|----------------------------------------------|
C|----------------------------------------------|
G|-5~--5--5--5--5--5--5--5--5--5--5--5--5--5--5-|
D|----------------------------------------------|

F|---------------------------------------------|
C|---------------------------------------------|
G|---------------------------------------------|
D|-5~--5--5--5--5--5--5--3~--3--3--3--3--3--3--|

F|----------------------------------------------|
C|----------------------------------------------|
G|-5~--5--5--5--5--5--5--5--5--------------0--3-|
D|-----------------------------0--2--3--4-------|    

F|---------------------------------------------|
C|---------------------------------------------|
G|---------------------------------------------|
D|-5~--5--5--5--5--5--5--3~--3--3--3--3--3--3--|

F|----------------------------------------------|
C|----------------------------------------------|
G|-5~--5--5--5--5--5--5--5--5--5--5--5--5--5--5-|
D|----------------------------------------------|

F|---------------------------------------------|
C|---------------------------------------------|
G|---------------------------------------------|
D|-5~--5--5--5--5--5--5--3~--3--3--3--3--3--3--|

F|----------------------------------------------|
C|----------------------------------------------|
G|----------------------------------------------|
D|-1~--1--1--1--1--1--1--1--1--1--1--1--1--1--1-|

F|-------------------------------------------|
C|-------------------------------------------|
G|--------------------------------------0--3-|
D|-1~--1--1--1--1--1--1--1--0--2--3--4-------|

F|--------------------------------------------|
C|--------------------------------------------|
G|--------------------------------------------|2x
D|-5------------------------------------3~--4-|

Post-Chorus
F|--------------------------------------------|
C|--------------------------------------------|
G|--------------------------------------------|2x
D|-5~--5--5--5--5--5--5--5--5--5--5--5--3~--4-|

Repeat: Verse

Chorus 2
F|---------------------------------------------|
C|---------------------------------------------|
G|---------------------------------------------|
D|-5~--5--5--5--5--5--5--3~--3--3--3--3--3--3--|

F|----------------------------------------------|
C|----------------------------------------------|
G|-5~--5--5--5--5--5--5--5--5--5--5--5--5--5--5-|
D|----------------------------------------------|

F|---------------------------------------------|
C|---------------------------------------------|
G|---------------------------------------------|
D|-5~--5--5--5--5--5--5--3~--3--3--3--3--3--3--|

F|----------------------------------------------|
C|----------------------------------------------|
G|-5~--5--5--5--5--5--5--5--5--------------0--3-|
D|-----------------------------0--2--3--4-------|    

F|---------------------------------------------|
C|---------------------------------------------|
G|---------------------------------------------|
D|-5~--5--5--5--5--5--5--3~--3--3--3--3--3--3--|

F|----------------------------------------------|
C|----------------------------------------------|
G|-5~--5--5--5--5--5--5--5--5--5--5--5--5--5--5-|
D|----------------------------------------------|

F|---------------------------------------------|
C|---------------------------------------------|
G|---------------------------------------------|
D|-5~--5--5--5--5--5--5--3~--3--3--3--3--3--3--|

F|--------------------------------------------------------------------|
C|--------------------------------------------------------------------|
G|--------------------------------------------------------------------|
D|-1~--1--1--1--1--1--1--1--1--1--1--1--1--1--1--0~-------------------|

Rest

Bridge:
F|------------------|
C|------------------|
G|-------------0--3-|
D|-0--2--3--4-------|   

F|---------------------------------------------|
C|---------------------------------------------|
G|---------------------------------------------|
D|-5~--------------------3~--------------------|

F|---------------------------------------------|
C|---------------------------------------------|
G|-5~------------------------------------------|
D|---------------------------------------------|

F|---------------------------------------------|
C|---------------------------------------------|
G|---------------------------------------------|
D|-5~--------------------3~--------------------|

F|---------------------------------------------|
C|---------------------------------------------|
G|-5~------------------------------------0--3--|
D|---------------------------0--2--3--4--------|

F|---------------------------------------------|
C|---------------------------------------------|
G|---------------------------------------------|
D|-5~--------------------3~--------------------|

F|---------------------------------------------|
C|---------------------------------------------|
G|-5~------------------------------------------|
D|---------------------------------------------|

F|---------------------------------------------|
C|---------------------------------------------|
G|---------------------------------------------|
D|-5~--------------------3~--------------------|

F|---------------------------------------------|
C|---------------------------------------------|
G|-5~------------------------------------0--3--|
D|---------------------------0--2--3--4--------|

F|---------------------------------------------|
C|-7~--------------------5~--------------------|
G|---------------------------------------------|
D|---------------------------------------------|

F|---------------------------------------------|
C|---------------------------------------------|
G|-5~------------------------------------------|
D|---------------------------------------------|

F|---------------------------------------------|
C|-7~--------------------5~--------------------|
G|---------------------------------------------|
D|---------------------------------------------|

F|---------------------------------------------|
C|---------------------------------------------|
G|-5~------------------------------------0--3--|
D|---------------------------0--2--3--4--------|

Final Chorus Part 1: 2x           
F|---------------------------------------------|
C|---------------------------------------------|
G|---------------------------------------------|
D|-5~--5--5--5--5--5--5--3~--3--3--3--3--3--3--|

F|----------------------------------------------|
C|----------------------------------------------|
G|-5~--5--5--5--5--5--5--5--5--5--5--5--5--5--5-|
D|----------------------------------------------|

F|---------------------------------------------|
C|---------------------------------------------|
G|---------------------------------------------|
D|-5~--5--5--5--5--5--5--3~--3--3--3--3--3--3--|

F|----------------------------------------------|
C|----------------------------------------------|
G|-5~--5--5--5--5--5--5--5--5--------------0--3-|
D|-----------------------------0--2--3--4-------|      

Part 2:
F|---------------------------------------------|
C|---------------------------------------------|
G|---------------------------------------------|
D|-5~--5--5--5--5--5--5--3~--3--3--3--3--3--3--|

F|----------------------------------------------|
C|----------------------------------------------|
G|-5~--5--5--5--5--5--5--5--5--5--5--5--5--5--5-|
D|----------------------------------------------|

F|---------------------------------------------|
C|---------------------------------------------|
G|---------------------------------------------|
D|-5~--------5~----------3~--------3~----------|

F|----------------------------------------------|
C|----------------------------------------------|
G|-5~--5--5--5--5--5--5--5--5--------------0--3-|
D|-----------------------------0--2--3--4-------|      

Repeat Final Chorus Part 1 1x

Part 3
F|---------------------------------------------|
C|---------------------------------------------|
G|---------------------------------------------|
D|-5~--5--5--5--5--5--5--3~--3--3--3--3--3--3--|

F|----------------------------------------------|
C|----------------------------------------------|
G|-5~--5--5--5--5--5--5--5--5--5--5--5--5--5--5-|
D|----------------------------------------------|

F|---------------------------------------------|
C|---------------------------------------------|
G|---------------------------------------------|
D|-5~--5--5--5--5--5--5--3~--3--3--3--3--3--3--|

F|----------------------------------------------|
C|----------------------------------------------|
G|-5~-------------------------------------------|
D|-----------------------------------------3~-4-|

Outro
F|--------------------------------------------|
C|--------------------------------------------|
G|--------------------------------------------|2x
D|-5~--5--5--5--5--5--5--5--5--5--5--5--3~--4-|

F|--------------------------------------------|
C|--------------------------------------------|
G|--------------------------------------------|
D|-5--3~--4--5--3~--4--5----------------------|

F|------------------------------------------------------------------------|
C|-7~-7-7-7-7-7-7-7-7-7-7-7-7-7-7-7-7-7-7-7-7-7-7-7-7-7-7-7-7-7-7-7-7-7-7-|
G|------------------------------------------------------------------------|
D|------------------------------------------------------------------------|

F|-----------------------------------------------------------------------|
C|-7-7-7-7-7-7-7-7-7-7-7-7-7-7-7-7-7-7-7-7-7-7-7-7-7-7-7-7-7-7-7-7-7-7-7-|
G|-----------------------------------------------------------------------|
D|-----------------------------------------------------------------------|

F|-----------------------------------------------------------------------|
C|-9-9-9-9-9-9-9-9-9-9-9-9-9-9-9-9-9-9-9-9-9-9-9-9-9-9-9-9-9-9-9-9-9-9-9-|
G|-----------------------------------------------------------------------|
D|-----------------------------------------------------------------------|

F|-5-5-5-5-5-5-5-5-5-5-5-5-5-5-5-5-5-5-5-5-5-5-5-5-5-5-5-5-5-5-5-5-5-5-5-|
C|-----------------------------------------------------------------------|
G|-----------------------------------------------------------------------|
D|-----------------------------------------------------------------------|

F|-7-7-7-7-7-7-7-7-7-7-7-7-7-7-7-7-7-7-7-7-7-7-7-7-7-7-7-7-7-7-7-7-7-7-7-|
C|-----------------------------------------------------------------------|
G|-----------------------------------------------------------------------|
D|-----------------------------------------------------------------------|

F|-7~--------------------------------------------------------------------|
C|------------------------------------------------------------------7\---|
G|-----------------------------------------------------------------------|
D|-----------------------------------------------------------------------|

            
            
Suggest correction
Creating personal tab
Creating personal tab
You can edit any tab online and save it as your Personal.

You can edit, replace or remove any tab part or add personal notes – all changes will be seen only by you.

Personal tabs can be accessed anytime from any device, even offline.
Learn more »
Give kudos to tab author, rate the tab!
1 2 3 4 5
comments
print report bad tab
guest
You may want to rate the tab now too:
select rating
Wanna post a correction for this tab? Suggest correction