Oops, an error
Loading. Please wait.

Chillo È Nu Buono Guaglione chords

version 1
version 1

Whole song

1,438 views 39 this week
no commentswrite comment
1 2 3 4 5
1 last vote to show rating
add to favorites
×
Save as Personal and add changes to this tab that will be seen only by you. Learn more ›
×
You can save this tab as Personal to edit and correct it or add notes. All changes will be seen only by you. Learn more »
launch autoscroll
font size
0
reset
transpose
0
reset
simplify chords
display chords
guitar tuner
edit
Autoscroll
slow
fast
+/-
esc
set tempo
stop
Author
Difficulty
Strumming
There is no strumming pattern for this song yet. and get +5 IQ
(INTRO)
Em
|--------7-8-7-------------------|
|---------------8---------8------|
|-----9------------9------9------|
|---9-----------------9----------|
|-7------------------------------|
|--------------------------------|

Em
|--------7-8-7------------8^7----|
|---------------8---------7------|
|-----9------------9--7----------|
|---9----------------------------|
|-7------------------------------|
|--------------------------------| (x2)

Em Bm7 Am7 Bm7  (x4)

Em                  Bm7
Chillo è nu buono guaglione
Am7                           Bm7
fà 'a vita 'e notte sott'a nu lampione
Em                Bm7
e quando arriva mezzanotte scende e
Am7    Bm7
va a faticà'
Em               Bm7
chillo è nu buono guaglione
Am7                        Bm7
ma che peccato ca è nu poco ricchion
Em          Bm7          Am7
a cominciato col vestito della sorella
Bm7
pe pazzià'
C#m7
chillo è nu buono guaglione
C7+
e vo' essere na signora
Bm7
chillo è nu buono guaglione
E7
crede ancora all'amore
Em
|--------7-8-7-------------------|
|---------------8---------8------|
|-----9------------9------9------|
|---9-----------------9----------|
|-7------------------------------|
|--------------------------------|

Em
|--------7-8-7------------8^7----|
|---------------8---------7------|
|-----9------------9--7----------|
|---9----------------------------|
|-7------------------------------|
|--------------------------------| (x2)

Em Bm7 Am7 Bm7  (x4)

Em               Bm7
chillo è nu buono guaglione
Am7              Bm7
sogna la vita coniugale
Em               Bm7
ma per strada poi sta male
Am7              Bm7
perchè si girano a guardare
Em               Bm7
chillo è nu buono guaglione
Am7              Bm7
s'astipa 'e sorde pe ll'operazione
Em               Bm7
non ha alternativa
Am7              Bm7
solo azione decisiva.
C#m7
chillo è nu buono guaglione
C7+
e vo' essere na signora
Bm7
chillo è nu buono guaglione
E7
crede ancora all'amore

Em Bm7 Am7 Bm7  (x4)

Em               Bm7
E mi chiamerò Teresa
Am7              Bm7
scenderò a far la spesa
Em               Bm7
me facce crescere 'e capille
Am7              Bm7
e me metto 'e tacchi a spillo
Em               Bm7
inviterò gli amici a casa
Am7              Bm7
a passare una giornata
Em               Bm7
senza avere la paura
Am7              Bm7
che ci sia una chiamata
Em               Bm7
e uscire poi per strada
Am7              Bm7
e gridare SO' NORMALE!
Em               Bm7
e nisciuno me dice niente
Am7              Bm7
e nemmeno la stradale

C#m7
chillo è nu buono guaglione
C7+
e vo' essere na signora
Bm7
chillo è nu buono guaglione
E7
crede ancora all'amore

Em Bm7 Am7 Bm7  (x4)
Suggest correction
Creating personal tab
Creating personal tab
You can edit any tab online and save it as your Personal.

You can edit, replace or remove any tab part or add personal notes – all changes will be seen only by you.

Personal tabs can be accessed anytime from any device, even offline.
Learn more »
Give kudos to tab author, rate the tab!
1 2 3 4 5
comments
print report bad tab
guest
You may want to rate the tab now too:
select rating
Wanna post a correction for this tab? Suggest correction