Oops, an error
Loading. Please wait.

Herz Über Kopf chords

version 12
version 12

Whole song

Interactive

by Joris
817 views 1 this week
1 commentread comment
1 2 3 4 5
2 more votes to show rating
add to favorites
×
Save as Personal and add changes to this tab that will be seen only by you. Learn more ›
×
You can save this tab as Personal to edit and correct it or add notes. All changes will be seen only by you. Learn more »
launch autoscroll
font size
0
reset
transpose
0
reset
simplify chords
display chords
guitar tuner
edit
Autoscroll
slow
fast
+/-
esc
set tempo
stop
Author
Difficulty
About this tab version
I have improved the Chrous. no one have tab the chorus picking. Was this info helpful? Yes No
Strumming
There is no strumming pattern for this song yet. and get +5 IQ
Hi im Christian from "Christians How To Plays". I am provide Guitar Tutorials on Youtube. 

These Chords/Tabs are 100% correct. 

To look how i play the strumming and picking parts please visit my video lessons of the Song: 


Please Comment, Like and share my Videos.

Now, have fun with the Song: 

My Youtube Lesson for this Song (Deutsch): https://www.youtube.com/watch?v=7Py0B5kgzVg


Joris – Herz über Kopf 
Capo 4. Bund



Intro Picking: 
e|----------------------|--0----1----0----------|
B|--1----1-----1----3---|---1----1----1----3----|
G|----2----2-----2----4-|---------------------0-|
D|----------------------|-----------------------|
A|-0---0----0------2----|-3---3----3----3---3---|
E|----------------------|-----------------------| x2


Chorus Picking: 

E||------0-----------0-------|------1-----------1-------|
B||---------1-----------1----|---------1-----------1----|
G||-----------2-----------2--|-----------2-----------2--|
D||--------------------------|--------------------------|
A||--0-----------0-----------|--------------------------|
E||--------------------------|--1-----------1-----------|

------0-----------0-------|------0-----------0-------|
---------1-----------1----|---------0-----------0----|
-----------0-----------0--|-----------1-----------1--|
--------------------------|--------------------------|
--3-----------3-----------|--------------------------|
--------------------------|--0-----------0-----------|

------0-----------0-------|------1-----------1-------|
---------1-----------1----|---------1-----------1----|
-----------2-----------2--|-----------2-----------2--|
--------------------------|--------------------------|
--0-----------0-----------|--------------------------|
--------------------------|--1-----------1-----------|

------0-----------1-------|------0-------------------||
---------1-----------1----|---------1--------3-------||
-----------0-----------0--|-----------0---------0----||
--------------------------|--------------------------||
--3-----------3-----------|--3-----------3--------3--||
--------------------------|--------------------------||



Intro:
Am G/B C Csus4 C C/B
Am G/B C Csus4 C 



Vers 1:

C Em F                                     C Em F
       Hast mich lang nicht mehr so angeseh‘n
                                   C Em     F
hab viel zu oft versucht uns zu versteh‘n
                                      G          Am
die Augen treffen sich, der Wein ist schon halb leer
C Em F                                       C Em   F
        Oh, ich weiß ganz genau was du grad denkst
                                   C Em     F
der Zug ist abgefahrn' die Zeit verschenkt
                                G      Am
fühlt sich so richtig an, doch ist so falsch

Chorus 1: (No Chords)
Am                F            C
Und immer wenn es Zeit wär zu geh‘n
                     E              Am
Vergess‘ ich was mal war und bleibe steh‘n
              F                        C Csus4 C
das Herz sagt bleib, der Kopf schreit geh
(Intro/Verse Picking)
            Am G/B C Csus4 C G/B 
Herz über Kopf
            Am G/B C Csus4 C 
Herz über Kopf


Vers 2:

C Em F                                     C Em  F
      Trägst deine Haare immer noch wie früher
                        C Em   F
und du tanzt genau wie früher
                                      G         Am
die Augen treffen sich der Raum ist schon halb leer
C Em F                                       C Em  F
      Hab‘n uns so oft gesagt es geht nicht mehr
                                           C Em  F
das war am Anfang schwer, doch jetzt viel mehr
                             G    Am
Musik ist aus und du kommst immer näher




Chorus 2: (Chorus Picking)

Am                F            C
Und immer wenn es Zeit wär zu geh‘n
                   E               Am
Verpass‘ ich den Moment und bleibe steh‘n
              F                        C Csus4 C
das Herz sagt bleib, der Kopf schreit geh
G/B       Am                 
Herz über Kopf                
                 
Am                F            C
Und immer wenn es Zeit wär zu geh‘n
                   E               Am
Verpass‘ ich den Moment und bleibe steh‘n
              F                        C Csus4 C
das Herz sagt bleib, der Kopf schreit geh
G/B       Am                 
Herz über Kopf                

Bridge: (No Chords)
          F    G   Em
Herz über Ko-  o - opf
          Dm      C Csus4 C
Herz über Ko- o - opf
          F                         G          Am
Herz über Kopf, lass ich dich immer noch nicht gehn
                               C   G
lass ich dich immer noch nicht gehn
Am                  F         C   E Am  F  C Csus4 C 
Auch wenn es längst Zeit wär zu gehn
G/B       Am     
Herz über Kopf

Chorus 
                  F            C
Und immer wenn es Zeit wär zu geh‘n
                   E              Am
Verpass‘ ich den Moment und bleibe steh‘n
              F                        C  Csus4 C
das Herz sagt bleib, der Kopf schreit geh
G/B       Am                 
Herz über Kopf                

F            C
Und immer wenn es Zeit wär zu geh‘n
                   E              Am
Verpass‘ ich den Moment und bleibe steh‘n
              F                        C  Csus4 C
das Herz sagt bleib, der Kopf schreit geh
G/B       Am                 
Herz über Kopf                

End:
          Am    F  C
Herz über Kopf

            
            
Suggest correction
Creating personal tab
Creating personal tab
You can edit any tab online and save it as your Personal.

You can edit, replace or remove any tab part or add personal notes – all changes will be seen only by you.

Personal tabs can be accessed anytime from any device, even offline.
Learn more »
Give kudos to tab author, rate the tab!
1 2 3 4 5
comments
print report bad tab
1 comment total.
0 reply
finni1997 10 May 09, 2016 01:55 PM

Die erste Hälfte des ersten Refrains ist anders:

Chorus 1:
Am Em
Und immer wenn es Zeit wär zu geh‘n
E Am
Vergess‘ ich was mal war und bleibe steh‘n
F C Csus4 C
das Herz sagt bleib, der Kopf schreit geh

guest
You may want to rate the tab now too:
select rating
Wanna post a correction for this tab? Suggest correction